- самый крупный в мире бесплатный архив песенных текстов, аккордов, табулатур и нот

Crowbar - Existence Is Punishment - текст песни, таба, бас-таба, видео

Регистрация Запомнить меня
Войти через:  Facebook Google Twitter Vk Yandex

Crowbar - Existence Is Punishment - текст песни, таба, бас-таба, видео

Просмотров: 236
Existence is Punishment by Crowbar
transcribed by Matthew Writt

This is the first song from Crowbar i've tackled. I love this
song so i figured i'd tab it out so everyone can learn it.
They were a kick ass band who put out some good shit. This
is a big slice of it...

Tuning: BEADGB

Intro (slide in after clean bass riff)
This sounds really cool w/ 2 guitars playing it, but it
sounds like shit if just one part is played. Either learn to
play both at once (isn't too hard, except for the vibrato) 
or find a friend who can play the complimentary part...

Note: not all the vibrato is notated. It's ALL OVER this
riff. Just use it where it sounds right. 

Guitar 1 
E: /2--/7-7~-8^------------5
B: /0------------6~--6-6/5--

Guitar 2
A: ----/9-9~-10^-----------3
E: /2------------5~--5-5/3--
B: /0-----------------------

A: 9/10----9/10----------------------------------------
E: 7/8--8--7/8---8--8-7------------8-------8------8-7-
B: -----6--------6--6-5---0-0-0-0-6--0-0-6--0-0-6-5-
Добавлено: 27.06.2013
Другие материалы по этой песне:

Страница создана 27.04.2012
Привет, Гость.
Предлагаем пройти революционный курс по гитаре.
Подарок от PrimaNota.Ru, забирай!