PrimaNota.ru - самый крупный в мире бесплатный архив песенных текстов, аккордов, табулатур и нот


Crowbar - Fall Back To Zero - текст песни, таба, видео

Регистрация Запомнить меня
Войти через:  Facebook Google Twitter Vk Yandex Mail.ru

Crowbar - Fall Back To Zero - текст песни, таба, видео

Печатать
Просмотров: 310
Band:  CROWBAR
Album: Life's Blood For The Downtrodden
Song:  Fall Back to Zero

Transcribed by: general maxx

Tuning: 2.5 steps down (B)

Keys:
 / \ - slide
 ___ - palm mute
  h  - hammer on
  p  - pull off
  b  - bend
  r  - release bend


RIFF Aa: (clean)

|----------------------------------|
|----------------------------------|
|----------------------------------|
|-------7-----9---10---9-7---------|
|---5/7---8-7---7----7-------------|
|-0------------------------8~-7-5~-| 10x


RIFF Ab:

|----------------------------------|
|----------------------------------|
|----------------------------------|
|-------7-----9---10---------------|
|---5/7---8-7---7------------------|
|-0------------------------8~-7-5~-| 4x (dist. last 3 notes on 4th time)


RIFF B:

|----------------------------------------------------|
|----------------------------------------------------|
|----------------------------------------------------|
|-------------7------3-3------2h3-3-3-3p2-0h2--------|
|-------------5------3-3----------------------3-2-0--|
|-0-0-0-0-0-0----0-0-1-1-----------------------------|
  ___________    ___

 ----------------------------------------------------|
 ----------------------------------------------------|
 ----------------------------------------------------|
 -------------7------3-3------2h3-3-3-3p2------------|
 -------------5------3-3-----------------------------|
 -0-0-0-0-0-0----0-0-1-1------------------3-b-r-b-r~-| 2x
  ___________    ___


TRANSITION:

|-----------------------------------------------------|
|-----------------------------------------------------|
|-----------------------------------------------------|
|------------------2----------------------------------|
|------------------2----------------------------------|
|-3-1--/6--5-/10~--0----------------------------------|


RIFF Aa - 4x


RIFF Ab - 4x


RIFF B - 4x


RIFF C:

|-------------------------------------------------------------------|
|-------------------------------------------------------------------|
|-------------------------------------------------------------------|
|------------------------7/10---------------------5----8--10/11\10--|
|------------------------5/-8---------------------5----6---8/-9\-8--|
|-0-0-0-0-0--0-0-0-0-5p3-------0-0-0-0-0--0-0-0-0-3--0-6---8/-9\-8--|
  _________  _______           _________  _______    _

 -------------------------------------------------------------------|
 -------------------------------------------------------------------|
 -------------------------------------------------------------------|
 ------------------------7/10---------------------5----8------------|
 ------------------------5/-8---------------------5----6--------8b--|
 -0-0-0-0-0--0-0-0-0-5p3-------0-0-0-0-0--0-0-0-0-3--0-6--8-7-6-----| 2x
  _________  _______           _________  _______    _

|-----|
|-----|
|-----|
|-----|
|-8b--|
|-----| 7x


RIFF B - 4x


TRANSITION


RIFF Aa - 4x


RIFF Ab - 12x (gets slower after 8x, end on low B note)
Добавлено: 30.03.2012
Другие материалы по этой песне:
  • Аккорды и текст

Страница создана 30.03.2012
http://primanota.ru/crowbar/fall-back-to-zero-chords.htm
Привет, Гость.
Предлагаем пройти революционный курс по гитаре.
Подарок от PrimaNota.Ru, забирай!