PrimaNota.ru - самый крупный в мире бесплатный архив песенных текстов, аккордов, табулатур и нот


Crowbar - Holding Something - текст песни, таба, видео

Регистрация Запомнить меня
Войти через:  Facebook Google Twitter Vk Yandex Mail.ru

Crowbar - Holding Something - текст песни, таба, видео

Печатать
Просмотров: 112
Band:  CROWBAR
Album: Life's Blood For The Downtrodden
Song:  Holding Something

Transcribed by: general maxx
Tuning: 2.5 steps down (B)

Keys:
 / \ - slide
 ___ - palm mute
  h  - hammer on
  p  - pull off


INTRO/VERSE:

|-----------------------------------------|
|-----------------------------------------|
|-----------------------------------------|
|-2--2--7--7----5--3--8-------------------|
|-2--2--5--5----5--3--8--8--7--5----------|
|-0--0--5--5----3--1--6--5--5--3--/6~-----|

 ------------------------------------------------|     |-----|
 ------------------------------------------------|     |-----|
 ------------------------------------------------|     |-----|
 -2--2--7--7----5--3--8--------------------------|     |-----|
 -2--2--5--5----5--3--8--8--7--5--8---8-10-8-7-8-|     |-7-8-|
 -0--0--5--5----3--1--6--5--5--3--6---6--8-6-5-6-| 4x  |-5-6-|
                                             ___         ___


CHORUS A:

|---------------------------------|     |-----------------------------|
|---------------------------------|     |-----------------------------|
|---------------------------------|     |-----------------------------|
|-----------------------------3-5-|     |-----------------------------|
|-----8-7---------5-7-5-----------|     |-----8-7---------5-7-5-------|
|-0-5-----5-0-5-6-------6-3-6-----| 3x  |-0-5-----5-0-5-6-------6-3-6-|


VERSE


CHORUS B:

|---------------------------------|
|---------------------------------|
|---------------------------------|
|-----------------------------3-5-|
|-----8-7---------5-7-5-----------|
|-0-5-----5-0-5-6-------6-3-6-----| 4x


INTERLUDE:

|-------------------------------------------------------|
|-------------------------------------------------------|
|-------------------------------------------------------|
|----8-----------------6--------------------------------|
|-2--6-----------------4------------4-5-4-5-7-5-4-5-3-5-|
|-0--6--7--6~----5~----4----5-4-3~--2-3-2-3-5-3-2-3-1-3-| 4x
                                    ___________________

|-------------------------------|
|-------------------------------|
|------------------11\----------|
|------------------11\----------|
|-------------------9\--4-5-3-5-|
|-0-3h6p3-/8~--7~---9\--2-3-1-3-| 8x
                        _______


CHORUS A


OUTRO:

|----------------------|
|----------------------|
|----------------------|
|-2--2--2--2--7--2...--|
|-2--2--2--2--5--2...--|
|-0--0--0--0--5--0...--|
Добавлено: 04.07.2012
Другие материалы по этой песне:
  • Аккорды и текст

Страница создана 04.07.2012
http://primanota.ru/crowbar/holding-something-chords.htm
Привет, Гость.
Предлагаем пройти революционный курс по гитаре.
Подарок от PrimaNota.Ru, забирай!