PrimaNota.ru - самый крупный в мире бесплатный архив песенных текстов, аккордов, табулатур и нот


Crowbar - In Times Of Sorrow - таба, видео

Регистрация Запомнить меня
Войти через:  Facebook Google Twitter Vk Yandex Mail.ru

Crowbar - In Times Of Sorrow - таба, видео

Печатать
Просмотров: 162
Band:   CROWBAR
Album:  Sonic Excess in its Purest Form
Song:   In Times of Sorrow

Transcribed by: general maxx

Tuning: Standard

Note:   Lead played w/a guitar slide (Crowbar hired someone for this)


RHYTHM: (this riff may be a little off, but the Lead is all good)

|-0----0-0-0--0-0-0---0----0-0-0--0-0-0--|
|-3----3-3-3--3-3-3---3----1-1-1--3-3-3--|
|-2----2-2-2--0-0-0---2----3-3-3--5-5-5--|
|-0----3-3-3--2-2-2---0----0-0-0--5-5-5--|
|-------------3-3-3----------------------|
|----------------------------------------|

RHYTHM Prt. 2:

|-------0--------0--------0--------0----------0--------0--------0----0----|
|-------3--------3--------6--------1----------3--------3--------6----1----|
|-----4-----------------5--------0----------4-----------------5------0----|
|---4----------3------3--------2----------4----------3------3--------2----|
|-2----------1--------------------------2----------1----------------------|
|-------------------------------------------------------------------------|
                                                              sweep ^^^


LEAD:
|--------------------------------------------------------------------------|
|--------------------------------------------------------------------------|
|-/7~~~~-/5~~~-2~~~-/7~~~-9/10\9/10/12~~~~~~------/14-\12---14~~~~--17/19--|
|-------------------------------------------(12)---------------------------|
|--------------------------------------------------------------------------|
|--------------------------------------------------------------------------|

 --------------------------------------------------------------------------|
 --------------------------------------------------------------------------|
 -17~~-/19---14\12---10\9/10\9/10-9\7~~~-5~~~~~~\------------/12---10~~~~--|
 --------------------------------------------------------------------------|
 --------------------------------------------------------------------------|
 --------------------------------------------------------------------------|

 --------------------------------------------------------------------------|
 --------------------------------------------------------------------------|
 -5/7\5-7/9/10-\7~~~~~----------/22----/21---19\17/19~~~~~~-5~~-2~~-/7~~~--|
 --------------------------------------------------------------------------|
 --------------------------------------------------------------------------|
 --------------------------------------------------------------------------|

 --------------------------------------------------------------------|
 --------------------------------------------------------------------|
 -9/10\9/10-12~~~-7~~~-5/7\5--2~~~-/7~~~-9/10\9/10-12~~~\-/14~~~~~~--|
 --------------------------------------------------------------------|
 --------------------------------------------------------------------|
 --------------------------------------------------------------------|

 --------------------------------------------------------------------|
 --------------------------------------------------------------------|
 -/19-21/22\21/22-21-22-21~~~-21\19--17--14-14\12-9/10\9--7\5/9/10~~-|
 --------------------------------------------------------------------|
 --------------------------------------------------------------------|
 --------------------------------------------------------------------|

 ------------------------------------------------------------------------|
 ------------------------------------------------------------------------|
 -/12-12--/14-14--/17-17--/19~~~~\----/7~~~~~~-/5~~~------------/7~~~~~--|
 ----------------------------------------------------/7~~-/5~~-----------|
 ------------------------------------------------------------------------|
 ------------------------------------------------------------------------|

 ------------------------------------------------------------------------|
 ------------------------------------------------------------------------|
 -9/10\9/10-10~~~~-/14~~~~~~~~~~-12--10-\9/10\9\7-5~~-/7~~-7/9-9/10/12~--|
 ------------------------------------------------------------------------|
 ------------------------------------------------------------------------|
 ------------------------------------------------------------------------|

 ------------------------------------------------------------------------|
 ------------------------------------------------------------------------|
 -/14~~~\--/7~~~-5--2~~--/7~~~-9/10/12~~-/14~~~~--12--/9~~~~~\-----------|
 ------------------------------------------------------------------------|
 ------------------------------------------------------------------------|
 ------------------------------------------------------------------------|
Добавлено: 05.03.2012
Другие материалы по этой песне:
  • Аккорды и текст

Страница создана 05.03.2012
http://primanota.ru/crowbar/in-times-of-sorrow-chords.htm
Привет, Гость.
Предлагаем пройти революционный курс по гитаре.
Подарок от PrimaNota.Ru, забирай!