PrimaNota.ru - самый крупный в мире бесплатный архив песенных текстов, аккордов, табулатур и нот


Clutch - Eight Times Over Miss October - текст песни, таба, видео

Регистрация Запомнить меня
Войти через:  Facebook Google Twitter Vk Yandex Mail.ru

Clutch - Eight Times Over Miss October - текст песни, таба, видео

Печатать
Просмотров: 126
Авторы: Clutch

-------------------------------------------------------------------------------
                                Eight times over Miss October - Clutch
-------------------------------------------------------------------------------


8.18.07
Tabbed by: Tyler Eibl
Email: Tyler420@gmail.com

Tuning: Standard


Intro

e|--------------------------------|
B|o-------------------------------|
G|-------------3-3-3---5-5-5-5----|
D|----5-5-5-5--3-3-3---5-5-5-5----|
A|o---5-5-5-5--1-1-1---3-3-3-3----|
E|----3-3-3-3---------------------|

     "Once again"..

e|--------------------------------------------|
B|o-------------------------------------------|
G|--------------------------------------------|
D|-----------------------------------3--5-----|
A|o---------1-3p1-------1-3p1--------1--3-----|
E|----2-1-3-------3p1-3-------3p1-3-----------|

Verse

e|---------------------------------------------------|
B|o--------------------------------------------------|
G|---------------------------------------------------|
D|---------------------------------------------------|
A|o---5----1------------1----------1-----------1-----|
E|----3--3----3-3-2-1-3---3----3-3---3-3-2-1-3---3---| x4

     "Once around the stump then.."

e|--------------------------------------------|
B|o-------------------------------------------|
G|--------------------------------------------|
D|-----------------------------------3--5-----|
A|o---------1-3p1-------1-3p1--------1--3-----|
E|----2-1-3-------3p1-3-------3p1-3-----------|

     "Good God almgighty"..

e|--------------------------------------------|
B|o-------------------------------------------|
G|--------------------------------------------|
D|-----------------------------------3--------|
A|o---------1-3p1-------1-3p1--------1--5-----|
E|----2-1-3-------3p1-3-------3p1-3-----3-----|

Chorus
e|----------------------------------------|
B|o---------------------------------------|
G|--------------3-3-3--5-5-5-5--8-8-8-8---|
D|----5-5-5-5---3-3-3--5-5-5-5--8-8-8-8---|
A|o---5-5-5-5---1-1-1--3-3-3-3--6-6-6-6---|
E|----3-3-3-3-----------------------------|

     "Once again"..

 before 2nd verse
e|-----------------------|
B|o----------------------|
G|-----------------------|
D|-----------------------|
A|o----7b-7b-7b-7b-------|
E|-----5b-5b-5b-5b-------|

Bridge
e|--------------------------------------------------------------|
B|o-------------------------------------------------------------|
G|--------------------------------------------------------------|
D|--------------------------------------------------------------|
A|o------1-----------1--------3-1-------1h3-1-----1h3-1---------|
E|---------3-1-1h2h3---3-3--------3-1h3-------3-3-------3-1-2---|x2
             * * * *
"At the side of the road"..

e|----------------------------------------------------------|
B|o---------------------------------------------------------|
G|-----------------------------------------------3-3-5------|
D|-----------------------------------------------3-3-5------|
A|o-----------------1-------------1------3p1-3b--1-1-3------|
E|----3-1-3--3-1-3----3-3--3-1-3----3-3---------------------|
Добавлено: 22.04.2012
Другие материалы по этой песне:

Страница создана 22.04.2012
http://primanota.ru/clutch/eight-times-over-miss-october-chords.htm
Привет, Гость.
Предлагаем пройти революционный курс по гитаре.
Подарок от PrimaNota.Ru, забирай!