PrimaNota.ru - самый крупный в мире бесплатный архив песенных текстов, аккордов, табулатур и нот


Clutch - Far Country - текст песни, бас-таба, видео

Регистрация Запомнить меня
Войти через:  Facebook Google Twitter Vk Yandex Mail.ru

Clutch - Far Country - текст песни, бас-таба, видео

Печатать
Просмотров: 170
Авторы: Clutch

12/22/08
TABBED BY: ERIC LIDDY
EMAIL: LIDDY_19@HOTMAIL.COM

RIFF ONE/0:13

G--------------------------------------------------------------------|
D--------------------------------------------------------------------|
A-----------------------2-----7/--------------------------2-----7/---|
E--0--0-0-3h5-0-0-3h5-0---0-0--------0--0-0-3h5-0-0-3h5-0---0-0------|


RIFF TWO/1:14

G-------------------------------------------------------------|
D-------------------------------------------------------------|
G----5---------------------5--------5---------------------5---|
E--0--0-5-3-0-0--0-2h3-0-0--------0--0-5-3-0-0--0-2h3-0-0-----|


3:08

G-----------------|
A-----------------|
D-----------------|
E--0~~~~~~~~~~~~--|


RIFF ONE/3:20

G--------------------------------------------------------------------|
D--------------------------------------------------------------------|
A-----------------------2-----7/--------------------------2-----7/---|
E--0--0-0-3h5-0-0-3h5-0---0-0--------0--0-0-3h5-0-0-3h5-0---0-0------|
Добавлено: 24.04.2012
Другие материалы по этой песне:
  • Аккорды и текст

Страница создана 24.04.2012
http://primanota.ru/clutch/far-country-chords.htm
Привет, Гость.
Предлагаем пройти революционный курс по гитаре.
Подарок от PrimaNota.Ru, забирай!