PrimaNota.ru - самый крупный в мире бесплатный архив песенных текстов, аккордов, табулатур и нот


Clutch - Earth Rocker - таба, видео

Регистрация Запомнить меня
Войти через:  Facebook Google Twitter Vk Yandex Mail.ru

Clutch - Earth Rocker - таба, видео

Печатать
Просмотров: 236
Авторы: Clutch

Intro
                                  (Appears briefly, with wah-wah and delay)
     E  S S S S E  S S S S S S S S    E   E   E   E   E   E   Q      
E||--------------------------------|--------------------------------||
B||--------------------------------|--------------------------------||
G||--------------------------------|--------------------------------||
D||--5----------5------------------|--------------------------------||
A||-----0-0-0-0----0-0-0-0-0-0-0-0-|--10--12--13--12--10------------||
E||--------------------------------|----------------------12--10----||


Verse

  S S S S S S S S S S S S S S S S 
----------------------------------|
----------------------------------|
----------------------------------|
--------------5-5-----------------|
--3-0-0-0-0-0-3-3-0-0-0-0-5-0-4-0-|
----------------------------------|

Chorus

   E  S S S S  E   E  S S  E   E   
----------------------------------|
----------------------------------|
----------------------------------|
--------------------------12--14--|
--12----------12--14------10--12--|
--10--0-0-0-0-10--12--0-0---------|


   E   E   E   E   E  S S S S  E   E  S S S S S S  
--------------------------------------------------|
--------------------------------------------------|
--------------------------------------------------|
--15--14--12--------------------------------------|
--13--12--10--14--12----------12--14------7---6---|
--------------12--10--0-0-0-0-10--12--0-0-5-0-4-0-|

                                  
  S S S S S S S S S S S S S S S S  
----------------------------------|
----------------------------------|
----------------------------------|
----------------------------------|
--5-5-5-5-5-5-5-5-7-7-7-7-7-7-7-7-|
--3-3-3-3-3-3-3-3-5-5-5-5-5-5-5-5-|


"B-b-b-break it down..."

  S  S  S    E  S S  S  S  S  E  S  S  E  
------------------------------------------|
------------------------------------------|
------------------------------------------|
------------------------------------------|
-----------5g7--5-------------------------|
--0--0--0---------0--0--0--0--0--0--0--0--|


"Don't look to me for answers..."

  S S S S S S S S  S S S  S S S  S S    S S S S S S S S  E.   E.  E   
-------------------------------------|-------------------------------|
-------------------------------------|-------------------------------|
-------------------------------------|-------------------------------|
-------------------------------------|-------------------------------|
--7-7-7-7-7-7-7-7-10-7-7-10-7-7-10-7-|--7-7-7-7-7-7-7-7-10---12---5--|
--5-5-5-5-5-5-5-5--8-5-5--8-5-5--8-5-|--5-5-5-5-5-5-5-5--8---10---3--|


Back to chorus with:
  W                 
-------------------|
-------------------|
-------------------|
-------------------|
--3----------------|
--1----------------|




Duration Legend
---------------
W - whole
H - half
Q - quarter
E - 8th
S - 16th
T - 32nd
X - 64th
. - note dotted
|-n-|  - n-tuplets


Tablature Legend
----------------
L - tied note
x - dead note
g - grace note
(n) - ghost note
h - hammer on
p - pull off
S - shift slide
s - legato slide
/ -  slide into from below or out of upwards
\ -  slide into from above or out of downwards
~ - vibrato
W - wide vibrato
TP - tremolo picking
< - fade in
Добавлено: 29.08.2013
Другие материалы по этой песне:
  • Аккорды и текст

Страница создана 29.08.2013
http://primanota.ru/clutch/earth-rocker-chords.htm
Привет, Гость.
Предлагаем пройти революционный курс по гитаре.
Подарок от PrimaNota.Ru, забирай!