PrimaNota.ru - самый крупный в мире бесплатный архив песенных текстов, аккордов, табулатур и нот


Clutch - Escape From This Prison Planet - бас-таба, видео

Регистрация Запомнить меня
Войти через:  Facebook Google Twitter Vk Yandex Mail.ru

Clutch - Escape From This Prison Planet - бас-таба, видео

Печатать
Просмотров: 165
Уроки эстрадного вокала в Санкт-Петербурге
Riff 1
G----------------------------------------------
D----------------------------------------------
A----------3-----------3-------------3----3--2-
E--3h5-5-3---5---3h5-3---5---3h5-5-3---5-------

Verse Riff
G|----------------------------------------------|
D|----------------------------------------------|
A|---------7b---------------------7b------------|
E|--0--000----0--0--03-03--0--000----0--0--03-3-|

Riff 2
G|-------------------------------------------------|
D|-------5-------------5--------5------------------|
A|-----7---7--555555-7---7----7---7--555555-7-5-7--|
E|--0----------------------0-----------------------|

G|--------------------------------------------------|
D|-----5-------------5--------5---------------------|
A|---7---7--555555-7---7----7---7-------------------|
E|-0---------------------0--------6p55-6p55-6p55-3--|

That's all there is to this song, it's pretty simple,
but very fun to play. Enjoy!
Добавлено: 23.06.2012
Другие материалы по этой песне:
  • Аккорды и текст

Страница создана 23.06.2012
http://primanota.ru/clutch/escape-from-this-prison-planet-chords.htm
Привет, Гость.
Предлагаем пройти революционный курс по гитаре.
Подарок от PrimaNota.Ru, забирай!