PrimaNota.ru - самый крупный в мире бесплатный архив песенных текстов, аккордов, табулатур и нот


Clutch - 10001110101 - текст песни, таба, бас-таба, видео

Регистрация Запомнить меня
Войти через:  Facebook Google Twitter Vk Yandex Mail.ru

Clutch - 10001110101 - текст песни, таба, бас-таба, видео

Печатать
Просмотров: 425
Авторы: Clutch

CLUTCH

10001110101

tabbed by dan (yellowledbetter_69@hotmail.co.uk)

standard tuning

|-----------------------------------------------------|
|---8-6--8-6--10b12r10-8---8-6--8-6--8-6--10b12r10--8-|
|-----------------------------------------------------|
|-----------------------------------------------------|
|-----------------------------------------------------|
|-----------------------------------------------------|
intro   with wah

|-----------------------/10\---|
|-----------------------/11\---|
|----------12-12--12-12-/12\---|
|---5--8/--12-12--12-12-/12\---|
|---5--8/--10-10--10-10--------|
|---3--6/----------------------|
verse 1

|----------|
|----------|
|----------|
|----------|
|---5--5---|
|---3--3---|
pre-chorus  (bits and pieces...)

|----------------------------------|----------|--------------|
|--8-6--------8-6--------8-6-------|--8-8-8\--|--8-8-8-8-8\--|
|--7---7-5----7---7-5----7---7-5---|--7-7-7\--|--7-7-7-7-7\--|
|----------5----------5----------5-|----------|--------------|
|----------------------------------|----------|--------------|
|----------------------------------|----------|--------------|
chorus                            first and third times     second time

fourth time play the first bit of chorus then go to next part

|------------------------------------------------------------|
|------------------------------------------------------------|
|------------------------------------------------------------|
|------------------------------------------------------------|
|----------5-5-5-5--5------1-3-1-------5-5-5-5--5-----1-3-1--|
|---0--1---3-3-3-3--3-1-3--------0--1--3-3-3-3--3-1-3--------|
verse 2

then repeat pre-chorus, chorus and verse 2 parts again

|---------------|
|---------------|
|---------------|
|---------------|
|----------5----|
|---0--1---3----|
into organ break

after organ break, repeat the first verse a few times

there is then a guitar-less chorus, followed by this:

|---------|
|---------|
|---------| now back to chorus, 'then verse 2' part
|---------|
|--2--3---|
|--0--1---|

|--------------------------------|----------------------------|
|--------6-6---6---6---6---6--8--|----------------------------|
|------7-----7---7---7---7-------|----------------------------|
|--------------------------------|----3-3---3---3---3---3--5--|
|--------------------------------|--5-----5---5---5---5-------|
|--0-1---------------------------|----------------------------|
outro   with wah     (guitar 1)           this backs guitar 1

|-------------------------------------------------|
|-------------------------------------------------|
|---5b7---5p3---5p3---5p3---5b7-5-3---------------|
|-------------5-----5-----5---------0-3-0-3-5vvvv-|
|-------------------------------------------------|
|-------------------------------------------------|
solo 1   lots of wah

|--------------------------------------10b12vvvv-|
|--10--------------------------------------------|
|--12b14-13b15-11b13-12b14---7b9r7b9r7-----------|
|-----------------------------------------------|
|-----------------------------------------------|
|-----------------------------------------------|
solo 2     lots of wah   (i'm not sure about this one)  trem pick some notes(?)

|-----------------------------------------------------------|
|-----------------------------------------------------------|
|--5b7--5p3--5p3--5-5b7-5-3------3-5-3----------------------|
|----------5----5------------3h5-------5-3---3--------------|
|------------------------------------------5---5--3--1-3-1--|
|-----------------------------------------------------------|
solo 3

|---15----------------------------------------------|
|---18b20--15-----------------8-6-------------------|
|-------------17-15-17b19-15------7--3--5b7--3vvvv--|
|---------------------------------------------------|
|---------------------------------------------------|
|---------------------------------------------------|
end riff wah guitar

|----------------------------------------------|
|----------------------------------------------|
|----------------------------------------------|
|----------------------------------------------|
|----5---5--------------5--5--5-----3--1vvvvvv--|
|----3---3--1--3--3-----3--3--3--1-------------|
end riff guitar 2

that should be it. any comments, suggestions, requests etc email me.
Добавлено: 14.05.2012
Другие материалы по этой песне:

Страница создана 04.04.2012
http://primanota.ru/clutch/10001110101-chords.htm
Привет, Гость.
Предлагаем пройти революционный курс по гитаре.
Подарок от PrimaNota.Ru, забирай!