PrimaNota.ru - самый крупный в мире бесплатный архив песенных текстов, аккордов, табулатур и нот


Clutch - El Jeffe Speaks - бас-таба, видео

Регистрация Запомнить меня
Войти через:  Facebook Google Twitter Vk Yandex Mail.ru

Clutch - El Jeffe Speaks - бас-таба, видео

Печатать
Просмотров: 125
Уроки эстрадного вокала в Санкт-Петербурге
intro / chorus
G|--------------------------------------|
D|--------------0-----------------------|
A|--------------------------------------|
D|--9--9--8--9-------9---8---8--7--6----|

verse
G|----------------------------------------------|
D|-----------------------------------------0----|
A|----------------------------------------------|
D|--9--9--8--9----9--8--9----9--8--9----9-------|

pre-chorus - "take you away..."
G|-----------------------------------------------|
D|--------2----------2----------2----------------|
A|--0--2-----2----2-----2----2-----2--2----------|
D|---------------------------------------2--5----|

bridge - basically ride the open low D with the drums - this partI'm not entirely sure 
- play with the rhythm till it feels right
G|---------------------------------------------------------|
D|---------------------------------------------------------|
A|---------------------------------------------------------|
D|--0--0--0--0----0-0--0-0----0-0-0-0-0--0----0-0--0-0--0--|
Добавлено: 22.07.2012
Другие материалы по этой песне:
  • Аккорды и текст

Страница создана 22.07.2012
http://primanota.ru/clutch/el-jeffe-speaks-chords.htm
Привет, Гость.
Предлагаем пройти революционный курс по гитаре.
Подарок от PrimaNota.Ru, забирай!