PrimaNota.ru - самый крупный в мире бесплатный архив песенных текстов, аккордов, табулатур и нот


Clutch - Profits Of Doom - текст песни, таба, бас-таба, видео

Регистрация Запомнить меня
Войти через:  Facebook Google Twitter Vk Yandex Mail.ru

Clutch - Profits Of Doom - текст песни, таба, бас-таба, видео

Печатать
Просмотров: 256
Уроки эстрадного вокала в Санкт-Петербурге
-------------------------------------------------------------------------------
                            Profits of Doom - Clutch
-------------------------------------------------------------------------------
Tabbed by: Mark J
E-mail: AceofSpades_812@hotmail.com

Whole song is tabbed out here.
Solo is not 100% but sounds very close to the song.

Any corrections please leave in comments, Thanks.

Tuning: E Standard

Intro: (Starts after 4x Bass)
e|-----|----------------------------------------------------------|
B|-----|----------------------------------------------------------|
G|-----|----------------------------------------------------------|
D|--9--|----------------------------------------------------------|
A|--9--|----------------------------------------------------------|
E|--7--|--5-7-7--5-7-7--5-7-7--5-7-7--5-7-5-----------------------|x4 using Wah

Verse:
e|----------------------------------------------------------------|
B|----------------------------------------------------------------|
G|----------------------------------------------------------------|
D|----------------------------------------------------------------|
A|----------------------------------------------------------------|
E|--5-7-7--5-7-7--5-7-7--5-7-7--5-7-5-----------------------------|x4
"Born With A Moustache And A Supernova........"

Chorus:
e|-------------------------------------------------------------------------------|
B|-------------------------------------------------------------------------------|
G|-------------------------------------------------------------------------------|
D|--7/9--9-9----7/9--9-9---9-9-9/12----------------------------------------------|
A|--7/9--9-9----7/9--9-9---9-9-9/12----------------------------------------------|
E|--5/7--7-7----5/7--7-7---7-7-7/10--12-12-12-12-10--12b13--10h12p10-10--7-------|x2
"Swallower Of Planets, The Profits Of Doom....."

Verse x12
"A Caliph, Rabbi, And A Bishop Walk Into A Bar....."

Chorus X2
"Swallower Of Planets, The Profits Of Doom......"

Bridge:
e|-------------------------------------|
B|-------------------------------------|
G|-------------------------------------|
D|--2-2-----5--2-2--2p0----------------|
A|--2-2-----5--2-2------2p0------------|
E|--0-0-----3--0-0----------5-3p0------|x2


e|--------------------------------------------|
B|--------------------------------------------|
G|--------------------------------------------|
D|--2-2--5---2--2--5--2-2-5--2p0--------------|
A|--2-2--5---2--2--5--2-2-5------2p0----------|
E|--0-0--3---0--0--3--0-0-3----------5-3p0----|x2
"Genesis And Exodus, Leviticus And Numbers....."

e|-------------------------------------|
B|-------------------------------------|
G|-------------------------------------|
D|--2-2-----5--2-2--2p0----------------|
A|--2-2-----5--2-2------2p0------------|
E|--0-0-----3--0-0----------5-3p0------|x2

e|--------------------------------------------|
B|--------------------------------------------|
G|--------------------------------------------|
D|--2-2--5---2--2--5--2-2-5--2p0--------------|
A|--2-2--5---2--2--5--2-2-5------2p0----------|
E|--0-0--3---0--0--3--0-0-3----------5-3p0----|x2
"Swallower Of Planets, The Profits Of Doom........."

Solo: Not 100% but sounds pretty close, Use a wah pedal.
e|---------------------------------------------------------------------------|
B|---------------------------------------------------------------------------|
G|-------------------------------------7h9-10-10-10b11--12-9-9h10p9--7-------|
D|----------5----------5h7-9-9-----7h9---------------------------------------|
A|------5h7---7----5h7-------------------------------------------------------|
E|--5h7----------------------------------------------------------------------|

Outro (Same as Chorus)x4                                                     End.
e|--------------------------------------------------------------------------|-----|
B|--------------------------------------------------------------------------|-----|
G|--------------------------------------------------------------------------|-----|
D|--7/9--9-9----7/9--9-9---9-9-9/12-----------------------------------------|--9--|
A|--7/9--9-9----7/9--9-9---9-9-9/12-----------------------------------------|--9--|
E|--5/7--7-7----5/7--7-7---7-7-7/10--12-12-12-12\10--12b13--10h12p10-10--7--|--7--|
"Never Trust The White Man Driving The Black Van......."


************************************

| /   slide up
| \   slide down
| h   hammer-on
| p   pull-off
| ~   vibrato
| +   harmonic
| x   Mute note
| b   Bend
| pb  Pre-bend
| br  Bend release
| pbr Pre-bend release
| brb Bend release bend

************************************
Добавлено: 18.05.2014
Другие материалы по этой песне:

Страница создана 08.04.2012
http://primanota.ru/clutch/profits-of-doom-chords.htm
Привет, Гость.
Предлагаем пройти революционный курс по гитаре.
Подарок от PrimaNota.Ru, забирай!