PrimaNota.ru - самый крупный в мире бесплатный архив песенных текстов, аккордов, табулатур и нот


Clutch - Earthworm - текст песни, таба, бас-таба, видео

Регистрация Запомнить меня
Войти через:  Facebook Google Twitter Vk Yandex Mail.ru

Clutch - Earthworm - текст песни, таба, бас-таба, видео

Печатать
Просмотров: 140
Уроки эстрадного вокала в Санкт-Петербурге
Авторы: Clutch

Earthworm
written and performed by Clutch
from the album "Transnational Speedway League"
transcribed by Don Shiner   -   email:  dms367_1@hotmail.com

symbol:
__3__ = triplet

Intro/Fill:
|------------|------------|------------|------------|
|-10---------|-(10)-------|-(10)-------|-(10)-------|  let
|------------|------------|------------|------------|  feedback
|-7----------|-(7)--------|-(7)--------|-(7)--------|  through
|------------|------------|------------|------------|  intro
|------------|------------|------------|------------|

Verse:
"Now all will be sanctified..."
|------------|------------|------------|------------|
|------------|------------|------------|------------|  with
|------------|------------|------------|------------|  tremolo
|-7----------|-7----------|-10---------|-10------8--|  picking
|------------|------------|------------|------------|
|------------|------------|------------|------------|

Pre-Chorus:
|--------------------------|---------------------------|
|-__3__-__3__--------------|-__3__-__3__-__3__---------|
|--------------------------|---------------------------|
|-7-7-7-7-7-7-7------------|-7-7-7-7-7-7-8-8-8-7-------|
|-7-7-7-7-7-7-7------------|-7-7-7-7-7-7-8-8-8-7-------|
|-5-5-5-5-5-5-5------------|-5-5-5-5-5-5-6-6-6-5-------|

Chorus:
"G you writhe in the deep fry, squirm like the earthworm..."
|----------------|------------------|-----------------|------------------|
|----------------|------------------|-----------------|------------------|
|----------------|------------------|-----------------|------------------|
|-7---7---7------|-7---7---8-7------|-7---7---7-------|-7---7---8-7------|
|-7---7---7------|-7---7---8-7------|-7---7---7-------|-7---7---8-7------|
|-5---5---5------|-5---5---6-5------|-5---5---5-------|-5---5---6-5------|

|----------------|------------------|-----------------|------------------|
|----------------|------------------|-----------------|------------------|
|----------------|------------------|-----------------|------------------|
|-7---7---7------|-7---7---8-7-6-5--|-7---7---7-------|-7---7---8-7------|
|-7---7---7------|-7---7---8-7-6-5--|-7---7---7-------|-7---7---8-7------|
|-5---5---5------|-5---5---6-5-4-3--|-5---5---5-------|-5---5---6-5------|

Bridge:
"Now all will be purified..."
|----------------|-------------------------|   |-----|
|----------------|-------------------------|   |-----|
|----------------|-------------------------|   |-----|
|-7---7---7------|-7---8---7---6---5---2---|   |--3--|
|-7---7---7------|-7---8---7---6---5---4---|   |--3--|
|-5---5---5------|-5---6---5---4---3---4---|   |--1--|
     
Добавлено: 15.08.2013
Другие материалы по этой песне:
  • Аккорды и текст

Страница создана 23.03.2012
http://primanota.ru/clutch/earthworm-chords.htm
Привет, Гость.
Предлагаем пройти революционный курс по гитаре.
Подарок от PrimaNota.Ru, забирай!