PrimaNota.ru - самый крупный в мире бесплатный архив песенных текстов, аккордов, табулатур и нот


Clutch - Effigy - текст песни, бас-таба, видео

Регистрация Запомнить меня
Войти через:  Facebook Google Twitter Vk Yandex Mail.ru

Clutch - Effigy - текст песни, бас-таба, видео

Печатать
Просмотров: 159
Авторы: Clutch

riff 1 - intro - guitar only --- bass plays last 6 notes last time through
G|----------------------------------|
D|----------------------------------|
A|----------------------------------|
E|----------------------------000000|

riff 2 - "behold the man..."
G|----------------------------------|
D|----------------------------------|
A|----------------------------------|
E|--0---1-0---0---0-0---1-0---000000|

riff 3 - "in his likeness..."
G|----------------------------------|
D|----------------------------------|
A|----------------------------------|
E|--2---3-2---2---2-2---3-2---222222|

riff 3 - variation
G|----------------------------------|
D|----------------------------------|
A|----------------------------------|
E|--2---3-2---2---2-2---3-2---000000|

riff 4 - "beating myself to a pulp..."
G|------------------------------------------------------------------|
D|--2-2-2-2-2-2-2-2-------------------------------------------------|
A|------------------2-2-2-2-2-2-2-2---------------------------------|
E|----------------------------------3-3-3-3-3-3-3-3-5-5-5-5-2-2-2-2-|

riff 5 - "so I will..."
G|------------------------------------------------------------------|
D|------------------------------------------------------------------|
A|------------------------------------------------------------000000|
E|--0---1-0---0---0-0---1-0---0000000---1-0---0---0-0---1-0---------|

riff 6 - "the icons..."
G|----------------------------------|
D|----------------------------------|
A|----------------------------------|
E|--0-0-1-0-0-0-0-0-0-0-1-0-0-0-0-0-|

riff 7
G|----------------------------------|
D|----------------------------------|
A|----------------------------000000|
E|--0-0-1-0-0-0-1-0-0-0-1-0-0-------|
Добавлено: 06.06.2012
Другие материалы по этой песне:
  • Аккорды и текст

Страница создана 06.03.2012
http://primanota.ru/clutch/effigy-chords.htm
Привет, Гость.
Предлагаем пройти революционный курс по гитаре.
Подарок от PrimaNota.Ru, забирай!