PrimaNota.ru - самый крупный в мире бесплатный архив песенных текстов, аккордов, табулатур и нот


Clutch - Bacchanal - текст песни, таба, бас-таба, видео

Регистрация Запомнить меня
Войти через:  Facebook Google Twitter Vk Yandex Mail.ru

Clutch - Bacchanal - текст песни, таба, бас-таба, видео

Печатать
Просмотров: 168
Авторы: Clutch

Bacchanal by Clutch
from Transnational Speedway League
                                                         x4
e---------------------------------------------------------|
B---------------------------------------------------------|
G--------------------15-15-15-15-15-15-15-15-15-15-15-15--|
D--14-14-14-14-14-14-15-15-15-15-15-15-15-15-15-15-15-15--|
A--14-14-14-14-14-14-13-13-13-13-13-13-13-13-13-13-13-13--|
E--12-12-12-12-12-12--------------------------------------|

0.24
e---------------------|
B---------------------|
G--15-15-15-15-15-15--| strum until 0.36
D--15-15-15-15-15-15--| listen to song for tempo
A--13-13-13-13-13-13--|
E---------------------|

0.36                                                                x4
e--------------------------------------------------------------------|
B--------------------------------------------------------------------|
G--------------------------------------------------------------------|
D--10-10-10-10-10-9-8--2-2--2-2--2-----------------------------------|
A--10-10-10-10-10-9-8--2-2--2-2--2-----------------------------------|
E--8--8--8--8--8--7-6--0-0--0-0--0--2-3-2-0-2-3-2-0-2-3-2-0-2-3-2-0--|

0.59
e------------|
B------------|
G-----3-3-3--| palm mute and strum
D--2--2-2-2--| the D and G strings until 1.22
A--2---------|
E--0---------|

1.22                                                                x4
e--------------------------------------------------------------------|
B--------------------------------------------------------------------|
G--------------------------------------------------------------------|
D--10-10-10-10-10-9-8--2-2--2-2--2-----------------------------------|
A--10-10-10-10-10-9-8--2-2--2-2--2-----------------------------------|
E--8--8--8--8--8--7-6--0-0--0-0--0--2-3-2-0-2-3-2-0-2-3-2-0-2-3-2-0--|

1.45
e------------|
B------------| 
G-----3-3-3--| palm mute and strum
D--2--2-2-2--| the D and G strings until 2.09
A--2---------|
E--0---------|

2.09
e---------------------|
B---------------------|
G--15-15-15-15-15-15--| strum until 2.20
D--15-15-15-15-15-15--| 
A--13-13-13-13-13-13--|
E---------------------|

2.20                          x4
e------------------------------|
B------------------------------|
G------------------------------|
D--2-2-2-2-2--2-2--2-2--2-2-2--|
A--2-2-2-2-2--2-2--2-2--2-2-2--|
E--0-0-0-0-0--0-0--0-0--0-0-0--|

2.31                          x4
e------------------------------|
B------------------------------|
G------------------------------|
D------------------------------|
A------------------------------|
E--0-0-0-0-0--0-0--0-0--0-0-0--|

2.43                          x4
e------------------------------|
B------------------------------|
G--3-3-3-3-3--3-3--3-3--3-3-3--|
D--2-2-2-2-2--2-2--2-2--2-2-2--|
A--2-2-2-2-2--2-2--2-2--2-2-2--|
E--0-0-0-0-0--0-0--0-0--0-0-0--|

2.54                          x4
e------------------------------|
B------------------------------|
G------------------------------|
D--2-2-2-2-2--2-2--2-2--2-2-2--|
A--2-2-2-2-2--2-2--2-2--2-2-2--|
E--0-0-0-0-0--0-0--0-0--0-0-0--|

3.06                          x4
e------------------------------|------|
B------------------------------|------|
G--3-3-3-3-3--3-3--3-3--3-3-3--|------|
D--2-2-2-2-2--2-2--2-2--2-2-2--|--2~--|
A--2-2-2-2-2--2-2--2-2--2-2-2--|--2~--|
E--0-0-0-0-0--0-0--0-0--0-0-0--|--0~--|

3.23
e---------------|
B---------------|
G--3-3-3-3-3-3--| strum
D--2-2-2-2-2-2--| this until 3.46
A---------------|
E---------------|
   ^palm muted^

3.46                                                                x4
e--------------------------------------------------------------------|
B--------------------------------------------------------------------|
G--------------------------------------------------------------------|
D--10-10-10-10-10-9-8--2-2--2-2--2-----------------------------------|
A--10-10-10-10-10-9-8--2-2--2-2--2-----------------------------------|
E--8--8--8--8--8--7-6--0-0--0-0--0--2-3-2-0-2-3-2-0-2-3-2-0-2-3-2-0--|

Any corrections please comment
Thanks
Добавлено: 31.07.2012
Другие материалы по этой песне:
  • Аккорды и текст

Страница создана 04.04.2012
http://primanota.ru/clutch/bacchanal-chords.htm
Привет, Гость.
Предлагаем пройти революционный курс по гитаре.
Подарок от PrimaNota.Ru, забирай!