PrimaNota.ru - самый крупный в мире бесплатный архив песенных текстов, аккордов, табулатур и нот


Clutch - Basket Of Eggs - текст песни, таба, бас-таба, видео

Регистрация Запомнить меня
Войти через:  Facebook Google Twitter Vk Yandex Mail.ru

Clutch - Basket Of Eggs - текст песни, таба, бас-таба, видео

Печатать
Просмотров: 247
Авторы: Clutch

The fact that you are choosing to learn a few C! songs is commendable!  You are
  well on your way to an enlightening, religious, and musical fulfillment.  Dial in
  a good fuzzy tone and check it out.  Transcribed by Keith S. Byers (sreybk@yahoo.com)
    Tune down 1/2 step

  This is the main arpeggiated riff.  Play like your life depends on it with any old
 octave divider and preferably a Vox wah-wah. There's a second guitar (maybe Tim?)
 that does a little wah melody underneath.  Use your ears, I don't think it's too
 difficult.  Play opening riff twice.

 E-------------------------------------------------------------------------------|
 B-0--(0)-(0)*-------------------------------------------------------------------|
 G---------------------------10--9H-10---9H-10------------9H-10---9H-10----------|
 D------------------------12-----------------------------------------------------|
 A---------------------12------------------------12-10-------------------12-10---|
 E------------------10-----------------------------------------------------------|
   * open B with echo repeats

 E----------------------------|
 B----------------------------|
 G----------------------------|
 D--10-10--10-10----12-12-12--|
 A--10-10--10-10----12-12-12--|
 E--8--8---8--8-----10-10-10--|

 Verse Riff: Keep it Heavy!

 E---------------------------------------------------------------------|
 B---------------------------------------------------------------------|
 G---------------------------------------------------------------------|
 D--12-12-12-12---3-3--5-5-5-5--3-3--5-5-5-5---10-10-10/---12-12-12-12-|
 A--12-12-12-12---3-3--5-5-5-5--3-3--5-5-5-5---10-10-10/---12-12-12-12-|
 E--10-10-10-10---1-1--3-3-3-3--1-1--3-3-3-3---8--8--8/----10-10-10-10-|

   Even though the riffs are repetitive, the song is cool.  I saw them live,
  so this transcription is pretty accurate.  The solo part is backwards so
  the only way to figure it out is to be able to record it and then flip
  the tape or the wav file.


                   Basket of Eggs by Clutch

       As through a glass darkly you seek yourself,
      But the light grows weak while under Yggsdrasil.
      A basket of eggs may you count your days.
      Though your gut lies filled, only shells remain.


      I can tell you've been drinking by the scent of your breath.
      Another little sip, a bit deeper in debt.
      You can rest your head in your wrinkled hands.
      But when you awake, you're in another land.


      In fields of green rolling on endlessly
      You find a fallen nest where there is no tree.
      Mark the brown furred hound tied to the mandrake root.
      Dare you carve a face in that virtue food?


      I can tell what you're thinking. I see it everyday.
      I'll help you with your coat, see you on your way.
      Sure you want to go walking on a night like this?
      Look, there goes another one now. One day I swear they will not miss.


      As through a glass darkly you seek yourself,
      But the light grows weak while under Yggsdrasil.
      A basket of eggs may you count your days.
      Though your gut lies filled, only shells remain.
Добавлено: 29.03.2012
Другие материалы по этой песне:
  • Аккорды и текст

Страница создана 29.03.2012
http://primanota.ru/clutch/basket-of-eggs-chords.htm
Привет, Гость.
Предлагаем пройти революционный курс по гитаре.
Подарок от PrimaNota.Ru, забирай!