PrimaNota.ru - самый крупный в мире бесплатный архив песенных текстов, аккордов, табулатур и нот


Clutch - 7 Jam - текст песни, таба, бас-таба, видео

Регистрация Запомнить меня
Войти через:  Facebook Google Twitter Vk Yandex Mail.ru

Clutch - 7 Jam - текст песни, таба, бас-таба, видео

Печатать
Просмотров: 206
Уроки эстрадного вокала в Санкт-Петербурге
Авторы музыки: Clutch
Авторы текста: Clutch
Song: 7 Jam
Artist: Clutch
Album: Clutch
Tabbed By: Mason Bartlett
Tuning: Standard

Intro: After drum intro Beginning the bass lick
-----------|
-----------|
-----------|
-0---------|
-----------|
-----------|
Bass enters
And then guitar
-------------------------------------------|
-------------------------------------------|
--------10---------10h12-10-12b------10----|
---10h12---12-10h12-------------10h12---12-|
-------------------------------------------|
-------------------------------------------|

----------------------------|
----------------------------|
---10h12b------10h12-10-12b-|
---------10h12--------------|
----------------------------|
----------------------------|

----------------------         ---------|
----------------------         ---------|
----------------------         ---------|
------3-------3h5-3---         ---------|
---3h5--5--3h5-----5-- 9 times ---3h5---|
----------------------    Then ---------|

-------------------------------------------|
-------------------------------------------|
--------10---------10h12-10-12b------10----|
---10h12---12-10h12-------------10h12---12-|
-------------------------------------------|
-------------------------------------------|

----------------------------|
----------------------------|
---10h12b------10h12-10-12b-|
---------10h12--------------|
----------------------------|
----------------------------|


--------------------------------------------------------|
--------------------------------------------------------|
--------------------------------------------------------|
------3-------3h5-3-------------------------------------|
---3h5--5--3h5-----5------------------------------------| 8 times
--------------------------------------------------------|
-----------------------------------------         ------|
-----------------------------------------         ------|
-----------------------------------------         ------|
---5/77-7----3---3-----5/77-7----3---3h5-         ------|
---3/55-5-3h5--5---5---3/55-5-3h5--5-----         -3h5--|
----------------------------------------- 4 times ------|


----------------------------------------------------------|
----------------------------------------------------------|
---10h12-------10h12-10-12b10-12b-------10h12-10-12b10-12-|
---------10h12--------------------10h12-------------------|
----------------------------------------------------------|
----------------------------------------------------------|

---------------------------------------------------|
---------------------------------------------------|
--------10h12b-10-12b10-12b------10h12-10-12b------|
---10h12--------------------10h12------------10h12-|
---------------------------------------------------|
---------------------------------------------------|

----------------------         --------------------|
----------------------         --------------------|
----------------------         --------------------|
------3-------3h5-3---         ----3------3h5-3-5--|b
---3h5--5--3h5-----5-- 9 times -3h5--5-3h5---------|
----------------------    Then --------------------|

--------------------------------------------------------|
--------------------------------------------------------|
--------10---------10h12-10-12b------10h12-----10-------|
---10h12---12-10h12-------------10h12-----10h12---12-12-|
--------------------------------------------------------|
--------------------------------------------------------|

---10~~~~~~~~~~------------------------------|
---------------------10---------10h12-10-12--|b
----------------10h12---12-10h12-------------|
---------------------------------------------|
---------------------------------------------|
---------------------------------------------|

--------------------------------------------|
--------------------------------------------|
--------10---------10h12-10-12b-12~~~~~~~~~-|
---10h12---12-10h12-------------------------|
--------------------------------------------|
--------------------------------------------|

-----------------------------------|
-----------------------------------|
-----------------------------------|
------3-------3h5-3------------3---|
---3h5--5--3h5-----5--3h5--3h5---5-|
-----------------------------------|

----------------------------------------|
----------------------------------------|
----------------------------------------|
------3-------3h5-3-------3-------3-----|
---3h5--5--3h5-----5--3h5---5-3h5---5-5-|
----------------------------------------|

-----------------------------------------|
-----------------------------------------|
-----------------------------------------|
-------------------------3-------3h5-3---|
---3h5-3h5-3h5-3h5-5-3h5---5~3h5-------5-|
-----------------------------------------|

------------------------|
------------------------|
------------------------|
-------3-------3h5-3-5--|b
---3h5---5-3h5----------|
------------------------|

----------------------         ---------|
----------------------         ---------|
----------------------         ---------|
------3-------3h5-3---         ---------|
---3h5--5--3h5-----5-- 5 times ---3h5---|
----------------------    Then ---------|

----------------------------|
----------------------------|
---10h12b------10h12-10-12b-|
---------10h12--------------|
----------------------------|
----------------------------|

----------------------|
----------------------|
----------------------|
------3-------3h5-3---|
---3h5--5--3h5-----5--| 8 times
----------------------|

-----------------------------------------|
-----------------------------------------|
-----------------------------------------|
---5/77-7----3---3-----5/77-7----3---3h5-|
---3/55-5-3h5--5---5---3/55-5-3h5--5-----|
-----------------------------------------| 4 times
Добавлено: 03.03.2012
Другие материалы по этой песне:
  • Аккорды и текст

Страница создана 03.03.2012
http://primanota.ru/clutch/7-jam-chords.htm
Привет, Гость.
Предлагаем пройти революционный курс по гитаре.
Подарок от PrimaNota.Ru, забирай!