PrimaNota.ru - самый крупный в мире бесплатный архив песенных текстов, аккордов, табулатур и нот


Capture The Crown - Rebearth - таба, видео

Регистрация Запомнить меня
Войти через:  Facebook Google Twitter Vk Yandex Mail.ru

Capture The Crown - Rebearth - таба, видео

Печатать
Просмотров: 117
Уроки эстрадного вокала в Санкт-Петербурге
                             verse both guitars (living in a fucking..)x2

1:-----------------------------------------------------------------
2:-----------------------------------------------------------------
3:-----------------------------------------------------------------
4:-----------------------------------------------------------------
5:1-------1-------1-------1---------1-------1---------3----------1-
6:1-0000--1-0000--1-0000--1-000000--1-0000--1-0000-----3-1-3--3-1--
    ****    ****    ****    ******

1:---------------------------------------------------------------------------------------
2:---------------------------------------------------------------------------------------
3:---------------------------------------------------------------------------------------
4:---------------------------------------------------------------------------------------
5:1---------1----------1---------1-------------1---------1---------------------------
6:1-0000--1-0000--1-0000--1-000000--1-0000--1-0000------------------
       ****      ****     ****      ******     ****       ****
                          pre-chorus both guitars (we poison the water...)x2

1:--------------------------------------------------------------------
2:--------------------------------------------------------------------
3:--------------------------------------------------------------------
4:---------------------------------------------------------------4----
5:1-------1-------1----------1-------1--------1------------------4----
6:1-0000--1-0000--1-0000-----1-0000--1-0000---1-0000-------------4----
   ****     ****    ****       ****    ****     ****
                                              chorus rhythm

1:---------------------------------
2:---------------------------------
3:---------------------------------
4:1-------8--------5---------10-
5:1-------8--------5---------10-
6:1-------8--------5---------10-

    repeat the verse,pre chorus and the chorus,good luck ;)

Добавлено: 12.05.2016
Вам также может быть интересно:
Другие материалы по этой песне:
  • Аккорды и текст

Страница создана 12.05.2016
http://primanota.ru/capture-the-crown/rebearth-chords.htm
Привет, Гость.
Предлагаем пройти революционный курс по гитаре.
Подарок от PrimaNota.Ru, забирай!