PrimaNota.ru - самый крупный в мире бесплатный архив песенных текстов, аккордов, табулатур и нот


Capture The Crown - Janina - таба, видео

Регистрация Запомнить меня
Войти через:  Facebook Google Twitter Vk Yandex Mail.ru

Capture The Crown - Janina - таба, видео

Печатать
Просмотров: 677
-------------------------------------------------------------------------------
                         JANINA - Capture The Crown
-------------------------------------------------------------------------------
Tabbed by: Thomas H.
E-mail: tomjar8@yahoo.com.au

Tuning: E Standard

e|---------------------------------------------------------------------------|
B|-10-----7-----10-----9-----10----------------------------------------------|
G|-9------9-----9------9-----9-----------------------------------------------|
D|-11-x8--0-x8--11-x8--0-x4--0-x4--------------------------------------------|
A|-9------0-----9------0-----0-----------------------------------------------|
E|---------------------------------------------------------------------------|
^ Play this four times then there is some finger picking on the last chord.
e|---------------------------------------------------------------------------|
B|-0------0-----0-----0------------------------------------------------------|
G|-2------2-----1-----2------------------------------------------------------|
D|-2-x16--2-x8--2-x6--2-x2---------------------------------------------------|
A|-0------0-----0-----0------------------------------------------------------|
E|--------2------------------------------------------------------------------|

e|---------------------------------------------------------------------------|
B|-------------10-----9-----10-----------------------------------------------|
G|-2-----6-----9------9-----9------------------------------------------------|
D|-4-x8--7-x8--11-x8--0-x4--0-x4---------------------------------------------|
A|-4-----7-----9------0-----0------------------------------------------------|
E|---------------------------------------------------------------------------|
Play this 3 times.
e|---------------------------------------------------------------------------|
B|-10-----7-----10-----9-----10----------------------------------------------|
G|-9------9-----9------9-----9-----------------------------------------------|
D|-11-x8--0-x8--11-x8--0-x4--0-x4--------------------------------------------|
A|-9------0-----9------0-----0-----------------------------------------------|
E|---------------------------------------------------------------------------|
Play this twice but just hold the last chord.
B|-0------0-----0-----0------------------------------------------------------|
G|-2------2-----1-----2------------------------------------------------------|
D|-2-x16--2-x8--2-x6--2-x2---------------------------------------------------|
A|-0------0-----0-----0------------------------------------------------------|
E|--------2------------------------------------------------------------------|

e|---------------------------------------------------------------------------|
B|-------------10-----9-----10-----------------------------------------------|
G|-2-----6-----9------9-----9------------------------------------------------|
D|-4-x8--7-x8--11-x8--0-x4--0-x4---------------------------------------------|
A|-4-----7-----9------0-----0------------------------------------------------|
E|---------------------------------------------------------------------------|

B|-0------0-----0-----0------------------------------------------------------|
G|-2------2-----1-----2------------------------------------------------------|
D|-2-x16--2-x8--2-x6--2-x2---------------------------------------------------|
A|-0------0-----0-----0------------------------------------------------------|
E|--------2------------------------------------------------------------------|

e|---------------------------------------------------------------------------|
B|-------------10-----9-----10-----------------------------------------------|
G|-2-----6-----9------9-----9------------------------------------------------|
D|-4-x8--7-x8--11-x8--0-x4--0-x4---------------------------------------------|
A|-4-----7-----9------0-----0------------------------------------------------|
E|---------------------------------------------------------------------------|
Play this 3 times for the last time then go to this:
e|---------------------------------------------------------------------------|
B|--------------------9-----10-----------------------------------------------|
G|-2-----6-----7------9-----9------------------------------------------------|
D|-4-x8--7-x8--9-x8---0-x4--0-x4---------------------------------------------|
A|-4-----7-----9------0-----0------------------------------------------------|
E|---------------------------------------------------------------------------|
Play this twice then hold the last chord.

Have fun playing :)
Please leave a rating and/or comment! Thanks :D

************************************

| /   slide up
| \   slide down
| h   hammer-on
| p   pull-off
| ~   vibrato
| +   harmonic
| x   Mute note
| b   Bend
| pb  Pre-bend
| br  Bend release
| pbr Pre-bend release
| brb Bend release bend

************************************
Добавлено: 13.04.2015
Другие материалы по этой песне:
  • Аккорды и текст

Страница создана 13.04.2015
http://primanota.ru/capture-the-crown/janina-chords.htm
Привет, Гость.
Предлагаем пройти революционный курс по гитаре.
Подарок от PrimaNota.Ru, забирай!