PrimaNota.ru - самый крупный в мире бесплатный архив песенных текстов, аккордов, табулатур и нот


Capture The Crown - Rvg - таба, видео

Регистрация Запомнить меня
Войти через:  Facebook Google Twitter Vk Yandex Mail.ru

Capture The Crown - Rvg - таба, видео

Печатать
Просмотров: 417
Capture The Crown - RVG


Breakdown

e|---------------------------------------------------------------------------|
B|---------------------------------------------------------------------------|
G|---------------------------------------------------------------------------|
D|--00~--00~---00~----00~--00~-000000----------------------------------------|
A|--00~--00~---00~----00~--00~-000000----------------------------------------|
D|--00~--00~---00~----00~--00~-000000----------------------------------------|
     ............................................................
e|---------------------------------------------------------------------------|
B|---------------------------------------------------------------------------|
G|-------------------------------------------------------------*2------------|
D|--00~--00~---00~----00~--00~-----------------------------------------------|
A|--00~--00~---00~----00~--00~-----------------------------------------------|
D|--00~--00~---00~----00~--00~---999777--------------------------------------|
      ............ ............ ............ ............ ............

e|---------------------------------------------------------------------------|
B|---------------------------------------------------------------------------|
G|---------------------------------------------------------------------------|
D|--00--00---00----00--00-000000---------------------------------------------|
A|--00--00---00----00--00-000000---------------------------------------------|
D|--00--00---00----00--00-000000---------------------------------------------|
............ ............ ............ ............ ............
e|---------------------------------------------------------------------------|
B|---------------------------------------------------------------------------|
G|---------------------------------------------------------*2----------------|
D|--00--00---00----00--00----------------------------------------------------|
A|--00--00---00----00--00----------------------------------------------------|
D|--00--00---00----00--00---999777-------------------------------------------|
............ ............ ............ ............

Chorus



e|---------------------------------------------------------------------------|
B|---------------------------------------------------------------------------|
G|----------*16--------------------------------------------------------------|
D|--0----8-----3----2--------------------------------------------------------|
A|--0----8-----3----2--------------------------------------------------------|
D|--0----8-----3----2--------------------------------------------------------|



e|---------------------------------------------------------------------------|
B|---------------------------------------------------------------------------|
G|---------------------------------------------------------------------------|
D|---0000000000---0000088888-----8888833333----3333322222222-----------------|
A|---0000000000---0000088888-----8888833333----3333322222222-----------------|
D|---0000000000---0000088888-----8888833333----3333322222222-----------------|








Riff

e|----------------------------------------------------------------------------|
B|----------------------------------------------------------------------------|
G|----------------------------------------------------------------------------|
D|--0--1-------------------------0--1-----------------------------------------|
A|--0--1-------------------------0--1-----------------------------------------|
D|--0--1---0000--0-0--0--000000--0--1----0000--0-0-0--9997777-----------------|



Breakdown



e|---------------------------------------------------------------------------|
B|---------------------------------------------------------------------------|
G|----------------------------------------------------------------3b---------|
D|--0000--0000000--0000---000000—0000~--00000000~--0000~--000000-------------|
A|--0000--0000000--0000---000000—0000~--00000000~--0000~--000000-------------|
D|--0000--0000000--0000---000000—0000~--00000000~--0000~--000000-------------|
      ............ ............ ............ ............ ......


e|----------------------------------------------------------------------------|
B|----------------------------------------------------------------------------|
G|----------------------------------------------------------------------------|
D|--0000--0000000--0000---000000—0000~--00000000~--0000~--000000--------------|
A|--0000--0000000--0000---000000—0000~--00000000~--0000~--000000--------------|
D|--0000--0000000--0000---000000—1111~--11111111~--1111~--111111--------------|
............ ............ ............ ............ ............ ............
Lead Part

e|----------------------------------------------------------------------------|
B|--13-----------------------------------------------------------*3-----------|
G|-------10-------12---14---12---10---12---10---------------------------------|
D|------------12-------------------------------12-----------------------------|
A|----------------------------------------------------------------------------|
D|----------------------------------------------------------------------------|


e|---------------------------------------------------------------------------|
B|--13-----------------------------------------------------------------------|
G|------10-----12--14--12--10--12--10-----10---------------------------------|
D|----------12-------------------------12------------------------------------|
A|---------------------------------------------------------------------------|
D|---------------------------------------------------------------------------|


Chorus



e|---------------------------------------------------------------------------|
B|---------------------------------------------------------------------------|
G|----------*16--------------------------------------------------------------|
D|--0----8-----3----2--------------------------------------------------------|
A|--0----8-----3----2--------------------------------------------------------|
D|--0----8-----3----2--------------------------------------------------------|



e|---------------------------------------------------------------------------|
B|---------------------------------------------------------------------------|
G|---------------------------------------------------------------------------|
D|---0000000000---0000088888-----8888833333----3333322222222-----------------|
A|---0000000000---0000088888-----8888833333----3333322222222-----------------|
D|---0000000000---0000088888-----8888833333----3333322222222-----------------|




Pre Breakdown

e|---------------------------------------------------------------------------|
B|---------------------------------------------------------------------------|
G|---------------------------------------------------------------------------|
D|--0------------0-----------0-----------------------------------------------|
A|--0------------0-----------0-----------------------------------------------|
D|--0~-----------0~----------0-----------------------------------------------|
                             .


Breakdown


e|---------------------------------------------------------------------------|
B|---------------------------------------------------------------------------|
G|---------------------------------------------------------------------------|
D|-0-----0000----0000-----000000---------------------------------------------|
A|-0-----0000----0000-----000000-1-------------------------------------------|
D|-0~----0000~---0000~----000000---3-1-3-------------------------------------|
............ ............ ......

e|---------------------------------------------------------------------------|
B|---------------------------------------------------------------------------|
G|---------------------------------------------------------------------------|
D|-0-------0000------0000-----000000-000000----------------------------------|
A|-0-------0000------0000-----000000-000000----------------------------------|
D|-0~------0000~-----0000~----000000-111111----------------------------------|
............ ............ ............ ............ ............ ..


e|---------------------------------------------------------------------------|
B|---------------------------------------------------------------------------|
G|---------------------------------------------------------------------------|
D|-0-----0000----0000-----000000---------------------------------------------|
A|-0-----0000----0000-----000000-1-------------------------------------------|
D|-0-----0000----0000-----000000---3-1-3-------------------------------------|
............ ............ ......


e|---------------------------------------------------------------------------|
B|---------------------------------------------------------------------------|
G|---------------------------------------------------------------------------|
D|-0-------0000------0000-----000000-000000----------------------------------|
A|-0-------0000------0000-----000000-000000----------------------------------|
D|-0-------0000------0000-----000000-111111----------------------------------|
............ ............ ............ ............ ............ .
Open

e|----------------------------------------------------------------------------|
B|----------------------------------------------------------------------------|
G|----------------------------------------------------------------------------|
D|-0--------------------------------------------------------------------------|
A|-0--------------------------------------------------------------------------|
D|-0~-------------------------------------------------------------------------|








Electronic Break

e|----------------------------------------------------------------------------|
B|----------------------------------------------------------------------------|
G|-------------------------------------------------------*2-------------------|
D|--00-0-0------00-0-0-----00--0-0----33--3-3---------------------------------|
A|--00-0-0------00-0-0-----00--0-0----33--3-3---------------------------------|
D|--00-0-0------00-0-0-----00--0-0----33--3-3---------------------------------|



Pre Chorus


e|---------------------------------------------------------------------------|
B|---------------------------------------------------------------------------|
G|---------------------------------------------------------------------------|
D|---0------8------3------10-------------------------------------------------|
A|---0------8------3------10-------------------------------------------------|
D|---0~-----8~-----3~-----10~------------------------------------------------|



e|---------------------------------------------------------------------------|
B|---------------------------------------------------------------------------|
G|---------------------------------------------------------------------------|
D|---0------8------3------10---10101010--------------------------------------|
A|---0------8------3------10---10101010--------------------------------------|
D|---0~-----8~-----3~-----10~--10101010--------------------------------------|

End Chorus


e|---------------------------------------------------------------------------|
B|---------------------------------------------------------------------------|
G|---------------------------------------------------------------------*4----|
D|--0000000-----00008888------88883333------1010101010-----------------------|
A|--0000000-----00008888------88883333------1010101010-----------------------|
D|--0000000~----00008888~-----88883333~-----1010101010-----------------------|
Добавлено: 02.09.2013
Другие материалы по этой песне:

Страница создана 07.07.2013
http://primanota.ru/capture-the-crown/rvg-chords.htm
Привет, Гость.
Предлагаем пройти революционный курс по гитаре.
Подарок от PrimaNota.Ru, забирай!