PrimaNota.ru - самый крупный в мире бесплатный архив песенных текстов, аккордов, табулатур и нот


Capture The Crown - Til Death - таба, видео

Регистрация Запомнить меня
Войти через:  Facebook Google Twitter Vk Yandex Mail.ru

Capture The Crown - Til Death - таба, видео

Печатать
Просмотров: 235
Capture The Crown – Til Death

Fantastic song by far my favorite song of Til Death

Drop D

Hold up

E|---------------------------------------------------------------------------|
B|---------------------------------------------------------------------------|
G|------------------------------------------------------------------------*2-|
D|---------------------------------------------------------------------------|
A|-00---00-----0~0~0~0~0----0-0-0---00000------------------------------------|
D|-00---00-----0~0~0~0~0----0-0-0---00000------------------------------------|

you close

E|---------------------------------------------------------------------------|
B|---------------------------------------------------------------------------|
G|---------------------------------------------------------------------------|
D|-000~--000~----0~---0000~---000~--000~----000~-----------------------------|
A|-000~--000~----0~---0000~---000~--000~----000~-----------------------------|
D|-000~--000~----0~---0000~---000~--000~----000~-----------------------------|


Can you help me open my eyes to see what is pure
And what is right? I've been trapped in this fantasy all my life

E|---------------------------------------------------------------------------|
B|---------------------------------------------------------------------------|
G|---------------------------------------------------------------------------|
D|--0~-----------*2----------------------------------------------------------|
A|--0~-----------------------------------------------------------------------|
D|--0~-----------------------------------------------------------------------|

Do I have to search for words, can I just smile?

E|---------------------------------------------------------------------------|
B|---------------------------------------------------------------------------|
G|---------------------------------------------------------------------------|
D|--8---------3-------0000----------0000-00000-------------------------------|
A|--8---*7----3---*8--0000----------0000-00000-------------------------------|
D|--8---------3-------0000---0-0-0--0000 00000-------------------------------|


E|---------------------------------------------------------------------------|
B|---------------------------------------------------------------------------|
G|---------------------------------------------------------------------------|
D|--8---------3-------0000--------------0000-00000---------------------------|
A|--8---*7----3---*8--0000--------------0000-00000---------------------------|
D|--8---------3-------0000---777755555--0000-00000---------------------------|



E|---------------------------------------------------------------------------|
B|---------------------------------------------------------------------------|
G|---------------------------------------------------------------------------|
D|--0~-----------------------------------------------------------------------|
A|--0~-----------------------------------------------------------------------|
D|--0~-----------------------------------------------------------------------|



So in love, I'm falling deeper and deeper


E|---------------------------------------------------------------------------|
B|---------------------------------------------------------------------------|
G|---------------------------------------------------------------------------|
D|--0-----3-----8------0-----3-----10-----8----------------------------------|
A|--0-*7--3-*7- 8-*14--0--*7-3--*7-10-*7--8--*7------------------------------|
D|--0-----3-----8------0-----3-----10-----8----------------------------------|


E|----------------------------------------------------------------------------|
B|----------------------------------------------------------------------------|
G|----------------------------------------------------------------------------|
D|--0~------------------------------------------------------------------------|
A|--0~------------------------------------------------------------------------|
D|--0~------------------------------------------------------------------------|



The Rest of the song just consists of Breakdowns that are pretty simple.  I also haven't 
figured out the leads. Sorry
Добавлено: 02.07.2013
Другие материалы по этой песне:
  • Аккорды и текст

Страница создана 02.07.2013
http://primanota.ru/capture-the-crown/til-death-chords.htm
Привет, Гость.
Предлагаем пройти революционный курс по гитаре.
Подарок от PrimaNota.Ru, забирай!