PrimaNota.ru - самый крупный в мире бесплатный архив песенных текстов, аккордов, табулатур и нот


Capture The Crown - Insomniac - таба, видео

Регистрация Запомнить меня
Войти через:  Facebook Google Twitter Vk Yandex Mail.ru

Capture The Crown - Insomniac - таба, видео

Печатать
Просмотров: 191
Capture The Crown - Insomniac

Tuning: D-A-D-G-B-E (D-drop)

Guitar cover of this song: http://www.youtube.com/watch?v=F7R_Iut6y1Q

Tabbed by: AboveEverything



0:13
--------------------------------------------------------------------|
--------------------------------------------------------------------|
--------------------------------------------------------------------|
--------------------------------------------------------------------|
-0000-00-0000-00-000-000-0000-00-0000-00-0000-00-000-000-0-00-0-0---|
-0000-00-0000-00-000-000-0000-00-0000-00-0000-00-000-000-0-00-0-0---|
 .... .. .... .. ... ... .... .. .... .. .... .. ... ... . .. . .

--------------------------------------------------------------------|
--------------------------------------------------------------------|
--------------------------------------------------------------------|
--------------------------------------------------------------------|
-0000-00-0000-00-000-000-0000-00-0000-00-0000-00-000-000-0000-00----|
-0000-00-0000-00-000-000-0000-00-0000-00-0000-00-000-000-0000-00----|
 .... .. .... .. ... ... .... .. .... .. .... .. ... ... .... ..

0:26
GT1
--------------------------------------------------------------------|
--------------------------------------------------------------------|
--------------------------------------------------------------------|
--------------------------------------------------------------------|
-0000-00-0000-00-000-000-0000-00-0000-00-0000-00-000-000-0-00-0-0---|
-0000-00-0000-00-000-000-0000-00-0000-00-0000-00-000-000-0-00-0-0---|
 .... .. .... .. ... ... .... .. .... .. .... .. ... ... . .. . .

--------------------------------------------------------------------|
--------------------------------------------------------------------|
--------------------------------------------------------------------|
--------------------------------------------------------------------|
-0000-00-0000-00-000-000-0000-00-0000-00-0000-00-000-000-0000-00----|
-0000-00-0000-00-000-000-0000-00-0000-00-0000-00-000-000-0000-00----|
 .... .. .... .. ... ... .... .. .... .. .... .. ... ... .... ..

GT2
--------------------------------------------------------------------|
--------------------------------------------------------------------|
-7-------9-------10------12-------10------14------------------------|
--(16x)----(13x)----(3x)----(16x)----(8x)----(8x)-------------------|
-5-------7-------8-------10-------8-------12------------------------|
--------------------------------------------------------------------|

GT3
--------------------------------------------------------------------|
--------------------------------------------------------------------|
-10-------12-------14------15-------14------17----------------------|
----(16x)----(13x)----(3x)----(16x)----(8x)----(8x)-----------------|
-8--------10-------12------13-------12------15----------------------|
--------------------------------------------------------------------|

0:40
---------------------------------------------------------------------|
---------------6--------------------------------------------6--------|
---------------9--------------------------------------------9--------| (2x)
---------------------------------------------------------------------|
--------------------7h8p7--------------------------------------------|
-3-000-5-3-000---00-------8-00-5h7p5---3-000-5-3-000-8-88-8---00-5---|
   ..      ..    ..         ..           ..      ..    ..     ..

0:53
--------------------------------------------0------------------------|
--------------------------------------------0------------------------|
--------------------------------------------0------------------------|
----------------------------------0----------------------------------|
----------------------------------0----------------------------------|
-3-0-0-00-0-5-3-000-0-000-(4x)----0----------------------------------|
       ..       ..    ..

1:11
--------------------------------------------------------------------|
--------------------------------------------------------------------|
--------------------------------------------------------------------|
--------------------------------------------------------------------|
-00-00-00-0000-0000--0000-0000000000-000-00000000---(2x)------------|
-00-00-00-0000-0000--0000-0000000000-000-00000000-------------------|
 .. .. .. .... ....  .... .......... ... ........

1:24
--------------------------------------------------------------------|
--------------------------------------------------------------------|
--------------------------------------------------------------------|
--------------------------------------------------------------------|
-0000-00-00-00------------------------------------------------------|
-0000-00-00-00-0-0-0-0--(4x)----------------------------------------|
 .... .. .. ..

1:37
--------------------------------------------------------------------|
--------------------------------------------------------------------|
--------------------------------------------------------------------|
-0--------8--------10--------0--------8--------10-------------------|
-0-(32x)--8-(16x)--10-(16x)--0-(32x)--8-(16x)--10-(16x)-------------|
-0--------8--------10--------0--------8--------10-------------------|

2:01
---------------------------------------------------------------------|
---------------6--------------------------------------------6--------|
---------------9--------------------------------------------9--------| (2x)
---------------------------------------------------------------------|
--------------------7h8p7--------------------------------------------|
-3-000-5-3-000---00-------8-00-5h7p5---3-000-5-3-000-8-88-8---00-5---|
   ..      ..    ..         ..           ..      ..    ..     ..

2:14
---------------------------------------------------------------------|
---------------------------------------------------------------------|
---------------------------------------------------------------------|
---------------------------------------------------------------------|
-------1--------------------------1----------------------------------|
-0-0-0---3-1-1111-1-11-1-3--0-0-0---3-1-11-1-1-3---------------------|
             ....   ..                  ..   .

----------------------------------------WE----------------------------|
-------------------------------------------ARE------------------------|
-----------------------------------------------THE--------------------|
---------------------------------------------------WALKING------------|
-------1--------------------------1------------------------DEAD-------|
-0-0-0---3-1-1111-1-11-1-3--0-0-0---3-1-------------------------!-----|
             ....   ..

2:27
----------------------------------------------------------------------|
----------------------------------------------------------------------|
----------------------------------------------------------------------|
----------------------------------------------------------------------|
------1--------------------------1------------------(4x)-------1-11-0-|
0-0-0---3-1-1111-1-11-1-3--0-0-0---3-1-1111-1-1-3*b------0-0-0-1-11-0-|
            ....   ..                  ....   .

2:57
--------------------------------------------------------------------|
--------------------------------------------------------------------|
--------------------------------------------------------------------|
-0--------8--------10--------0--------8--------10-------------------|
-0-(32x)--8-(16x)--10-(16x)--0-(32x)--8-(16x)--10-(16x)-------------|
-0--------8--------10--------0--------8--------10-------------------|

3:46
-------------------------------------------------------------------|
-------------------------------------------------------------------|
-------------------------------------------------------------------|
-------------------------------------------------------------------|
-------------------------------------------------------------------|
-0-0-0-0-0-00-0-00-000-0000--0-0-0-0-0-00-0-00-00000000-(2x)-------|
 . . . . . .. . .. ... ....  . . . . . .. . .. ........

4:01 "FUCKING OATH MATE!"
-------------------------------------------------------------------|
-------------------------------------------------------------------|
-------------------------------------------------------------------|
-------------------------------------------------------------------|
-0-0-0-0--0-00-000-0000---0-0-0-0--0-00-00000000--(2x)-------------|
-1-1-1-1--1-11-111-1111---1-1-1-1--1-11-11111111-------------------|
 . . . .  . .. ... ....   . . . .  . .. ........






~~~~~~~~~~~~~~~~~~~~~~~~~~~~
| .   palm mute
| *   pinch harmonic
| b   bend
| p   pull-off
| h   hammer-on
~~~~~~~~~~~~~~~~~~~~~~~~~~~~
Добавлено: 02.08.2013
Другие материалы по этой песне:

Страница создана 02.08.2013
http://primanota.ru/capture-the-crown/insomniac-chords.htm
Привет, Гость.
Предлагаем пройти революционный курс по гитаре.
Подарок от PrimaNota.Ru, забирай!