PrimaNota.ru - самый крупный в мире бесплатный архив песенных текстов, аккордов, табулатур и нот


Capture The Crown - In My Head - таба, видео

Регистрация Запомнить меня
Войти через:  Facebook Google Twitter Vk Yandex Mail.ru

Capture The Crown - In My Head - таба, видео

Печатать
Просмотров: 494
My first TAB so it's not great I'm afraid! But hopefully you will like it, please submit 
any corrections to mattmatth123@googlemail.com thanks!

Drop D - Distortion Used Throughout

E|------------------------------------------------------|
B|------------------------------------------------------|
G|------------------------------------------------------|
D|------------------------------------------------------|
A|------------------------------------------------------|
D|------------------------------------------------------|

Guitar 1

0:00-0:08 (Tremelo effect)

E|------------------------------------------------------|
B|------------------------------------------------------|
G|------------------------------------------------------|     X2
D|------------------------------------------------------|
A|------------------------------------------------------|
D|---0-0-0-0-3-3-3-3-3-3-3-3-2-2-2-2--------------------|

Guitar 2

0:06-0:08

    P.M.--------------|

E|------------------------------------------------------|
B|------------------------------------------------------|
G|------------------------------------------------------|
D|---0-0-0-0-0-0-0-000----------------------------------|
A|---0-0-0-0-0-0-0-000----------------------------------|
D|---0-0-0-0-0-0-0-000----------------------------------|

Both Guitars

0:08-0:24

    P.M.--------------------------------|

E|------------------------------------------------------|
B|------------------------------------------------------|
G|------------------------------------------------------|    X3
D|---0-0--0-0---------3-3-3-3-3-3-2-2-2-2---------------|
A|---0-0--0-0---------3-3-3-3-3-3-2-2-2-2---------------|
D|---0-0--0-0---------3-3-3-3-3-3-2-2-2-2---------------|

    P.M.--------------------|

E|------------------------------------------------------|
B|------------------------------------------------------|
G|------------------------------------------------------|
D|---0-0--0-0---------3-3-3-3---------------------------|
A|---0-0--0-0---------3-3-3-3---------------------------|
D|---0-0--0-0---------3-3-3-3---------------------------|

Guitar 1

0:24-0:40

    P.M.--------------------------------|

E|------------------------------------------------------|
B|------------------------------------------------------|
G|------------------------------------------------------|
D|---0-0--0-0---00000000--0-0--0-0--0-0-0---------------|
A|---0-0--0-0---00000000--0-0--0-0--0-0-0---------------|
D|---0-0--0-0---00000000--0-0--0-0--0-0-0---------------|

    P.M.-------------------------|

E|------------------------------------------------------|
B|------------------------------------------------------|
G|------------------------------------------------------|
D|---0-0--0-0---00000000--0-0--0-0----------------------|
A|---0-0--0-0---00000000--0-0--0-0----------------------|
D|---0-0--0-0---00000000--0-0--0-0--3-2-2---------------|

    P.M.--------------------------------|

E|------------------------------------------------------|
B|------------------------------------------------------|
G|------------------------------------------------------|
D|---0-0--0-0---00000000--0-0--0-0--0-0-0---------------|
A|---0-0--0-0---00000000--0-0--0-0--0-0-0---------------|
D|---0-0--0-0---00000000--0-0--0-0--0-0-0---------------|

    P.M.--------------|

E|------------------------------------------------------|
B|------------------------------------------------------|
G|------------------------------------------------------|
D|---0-0-0-0-0-0-0-000----------------------------------|
A|---0-0-0-0-0-0-0-000----------------------------------|
D|---0-0-0-0-0-0-0-000----------------------------------|

Guitar 2

0:24-0:40 (Really not sure about this part I think it's right!)

E|------------------------------------------------------|
B|-------5-----5----------5-5-5-5-----------------------|
G|---6-6---6--6---6-6-8-6-------------------------------|    X2
D|------------------------------------------------------|
A|------------------------------------------------------|
D|------------------------------------------------------|

E|------------------------------------------------------|
B|-------5----------------------------------------------|
G|---6-6---6--8-8-10-10-10-10-8-------------------------|
D|------------------------------------------------------|
A|------------------------------------------------------|
D|------------------------------------------------------|

E|------------------------------------------------------|
B|------------------------------------------------------|
G|---6-6-8-8-10-10-8-8-10-10----------------------------|
D|------------------------------------------------------|
A|------------------------------------------------------|
D|------------------------------------------------------|

Both Guitars

0:40-0:56

E|------------------------------------------------------|
B|------------------------------------------------------|
G|-------------------5-5-5-5----------------------------|    X4
D|---0-0-0-0-3-3-3-3-5-5-5-5--3--2----------------------|
A|---0-0-0-0-3-3-3-3-3-3-3-3--3--2----------------------|
D|---0-0-0-0-3-3-3-3----------3--2----------------------|

Both Guitars

0:56-1:20

    P.M.--------------------------------|

E|------------------------------------------------------|
B|------------------------------------------------------|
G|------------------------------------------------------|    X6
D|---0-0--0-0---------3-3-3-3-3-3-2-2-2-2---------------|
A|---0-0--0-0---------3-3-3-3-3-3-2-2-2-2---------------|
D|---0-0--0-0---------3-3-3-3-3-3-2-2-2-2---------------|

Guitar 1

1:20-1:36

    P.M.--------------------------------|

E|------------------------------------------------------|
B|------------------------------------------------------|
G|------------------------------------------------------|
D|---0-0--0-0---00000000--0-0--0-0--0-0-0---------------|
A|---0-0--0-0---00000000--0-0--0-0--0-0-0---------------|
D|---0-0--0-0---00000000--0-0--0-0--0-0-0---------------|

    P.M.-------------------------|

E|------------------------------------------------------|
B|------------------------------------------------------|
G|------------------------------------------------------|
D|---0-0--0-0---00000000--0-0--0-0----------------------|
A|---0-0--0-0---00000000--0-0--0-0----------------------|
D|---0-0--0-0---00000000--0-0--0-0--3-2-2---------------|

    P.M.--------------------------------|

E|------------------------------------------------------|
B|------------------------------------------------------|
G|------------------------------------------------------|
D|---0-0--0-0---00000000--0-0--0-0--0-0-0---------------|
A|---0-0--0-0---00000000--0-0--0-0--0-0-0---------------|
D|---0-0--0-0---00000000--0-0--0-0--0-0-0---------------|

    P.M.--------------|

E|------------------------------------------------------|
B|------------------------------------------------------|
G|------------------------------------------------------|
D|---0-0-0-0-0-0-0-000----------------------------------|
A|---0-0-0-0-0-0-0-000----------------------------------|
D|---0-0-0-0-0-0-0-000----------------------------------|

Guitar 2

1:20-1:36 (Again, not really sure about this part I think it's right!)

E|------------------------------------------------------|
B|-------5-----5----------5-5-5-5-----------------------|
G|---6-6---6--6---6-6-8-6-------------------------------|    X2
D|------------------------------------------------------|
A|------------------------------------------------------|
D|------------------------------------------------------|

E|------------------------------------------------------|
B|-------5----------------------------------------------|
G|---6-6---6--8-8-10-10-10-10-8-------------------------|
D|------------------------------------------------------|
A|------------------------------------------------------|
D|------------------------------------------------------|

E|------------------------------------------------------|
B|------------------------------------------------------|
G|---6-6-8-8-10-10-8-8-10-10----------------------------|
D|------------------------------------------------------|
A|------------------------------------------------------|
D|------------------------------------------------------|


Both Guitars

1:36-1:52

E|------------------------------------------------------|
B|------------------------------------------------------|
G|-------------------5-5-5-5----------------------------|    X4
D|---0-0-0-0-3-3-3-3-5-5-5-5--3--2----------------------|
A|---0-0-0-0-3-3-3-3-3-3-3-3--3--2----------------------|
D|---0-0-0-0-3-3-3-3----------3--2----------------------|

Guitar 1

1:52-2:00

Let Ring ------------------------------------------------|
E|-------------------------------------------------------|
B|-------------------------------------------------------|
G|-------------------------------------------------------|
D|---0---------------------------------------------------|
A|---0---------------------------------------------------|PICKSLIDE- (D and A Strings)
D|---0---------------------------------------------------|

Guitar 1

2:00-2:04

Let Ring ------------------------------------| P.M.------|
E|-------------------------------------------------------|
B|-------------------------------------------------------|
G|-------------------------------------------------------|
D|---0----------------------------------------------0----|
A|---0----------------------------------------------0----|
D|---0----------------------------------------------0----|

Guitar 1

2:04-2:20

  P.M.-------------------------------------------------------|
E|-----------------------------------------------------------|
B|-----------------------------------------------------------|
G|-----------------------------------------------------------|    X4
D|---0--0-0-0--0--0-0--0-0--0-0-0----------------------------|
A|---0--0-0-0--0--0-0--0-0--0-0-0----------------------------|
D|---0--0-0-0--0--0-0--0-0--0-0-0----------------------------|

Guitar 1

2:20-2:26 (Pressure on the string on the area before the first fret)

  P.M.---------------------------------------------------|
E|-------------------------------------------------------|
B|-------------------------------------------------------|
G|-------------------------------------------------------|
D|---0--0-0-0--0--0-0--0-0--0-0-0------------------------|
A|---0--0-0-0--0--0-0--0-0--0-0-0------------------------|
D|---0--0-0-0--0--0-0--0-0--0-0-0------------------------|

  P.M.-------------------|  |Release pressure on the last 3 chords--|
E|------------------------------------------------------------------|
B|------------------------------------------------------------------|
G|------------------------------------------------------------------|
D|---0--0-0-0--0--0-0--0-0--0-0-0-----------------------------------|
A|---0--0-0-0--0--0-0--0-0--0-0-0-----------------------------------|
D|---0--0-0-0--0--0-0--0-0--0-0-0-----------------------------------|

Guitar 1

2:26-2:32


  P.M.-------------------------------------------------------|
E|-----------------------------------------------------------|
B|-----------------------------------------------------------|
G|-----------------------------------------------------------|    X2
D|---0--0-0-0--0--0-0--0-0--0-0-0----------------------------|
A|---0--0-0-0--0--0-0--0-0--0-0-0----------------------------|
D|---0--0-0-0--0--0-0--0-0--0-0-0----------------------------|

2:32-2:46 Stop Playing

Guitar 1

2:46-2:50 (Can play this if you want it's not actually part of the song)

    P.M.--------------|

E|------------------------------------------------------|
B|------------------------------------------------------|
G|------------------------------------------------------|
D|---0-0-0-0-0-0-0-000----------------------------------|
A|---0-0-0-0-0-0-0-000----------------------------------|
D|---0-0-0-0-0-0-0-000----------------------------------|

2:50-3:00 Stop Playing

Guitar 1

3:00-3:04

    P.M.--------------|

E|------------------------------------------------------|
B|------------------------------------------------------|
G|------------------------------------------------------|
D|---0-0-0-0-0-0-0-000----------------------------------|
A|---0-0-0-0-0-0-0-000----------------------------------|
D|---0-0-0-0-0-0-0-000----------------------------------|

Guitar 1

3:04-3:22

E|------------------------------------------------------|
B|------------------------------------------------------|
G|-------------------5-5-5-5----------------------------|    X4
D|---0-0-0-0-3-3-3-3-5-5-5-5--3--2----------------------|
A|---0-0-0-0-3-3-3-3-3-3-3-3--3--2----------------------|
D|---0-0-0-0-3-3-3-3----------3--2----------------------|

Guitar 1

3:22-3:30


    P.M.--------------------------------|

E|------------------------------------------------------|
B|------------------------------------------------------|
G|------------------------------------------------------|    X2
D|---0-0--0-0---00000000--0-0--0-0--0-0-0---------------|
A|---0-0--0-0---00000000--0-0--0-0--0-0-0---------------|
D|---0-0--0-0---00000000--0-0--0-0--0-0-0---------------|

Guitar 2

3:22-3:30

E|------------------------------------------------------|
B|-------5-----5----------5-5-5-5-----------------------|
G|---6-6---6--6---6-6-8-6-------------------------------|
D|------------------------------------------------------|
A|------------------------------------------------------|
D|------------------------------------------------------|

E|------------------------------------------------------|
B|-------5-----5----------5-----------------------------|
G|---6-6---6--6---6-6-8-6-------------------------------|
D|------------------------------------------------------|
A|------------------------------------------------------|
D|------------------------------------------------------|

Thanks! I hope you found this helpful! Tabbed by ear and my first time I've even 
attempted it so it's not going to be note perfect. Please send me any corrections and I will be 
sure to update it! :)
Добавлено: 04.09.2013
Другие материалы по этой песне:
  • Аккорды и текст

Страница создана 04.09.2013
http://primanota.ru/capture-the-crown/in-my-head-chords.htm
Привет, Гость.
Предлагаем пройти революционный курс по гитаре.
Подарок от PrimaNota.Ru, забирай!