PrimaNota.ru - самый крупный в мире бесплатный архив песенных текстов, аккордов, табулатур и нот


Capture The Crown - You Call That A Knife This Is A Knife - таба, видео

Регистрация Запомнить меня
Войти через:  Facebook Google Twitter Vk Yandex Mail.ru

Capture The Crown - You Call That A Knife This Is A Knife - таба, видео

Печатать
Просмотров: 615
Artist: Capture The Crown
Song: You Call That A knife? This Is A Knife!
Tuning: Drop D
Guitar:1 (Rhythm)
Guitar:2 (Lead)


Guitar 1&2
Intro
Riff:1

-----------------------------------------------------|
-----------------------------------------------------|
-----------------------------------------------------| (x4)
00000-00000--------------00000-00000------------10---|
00000-00000--------------00000-00000-------10h12--12-|
00000-000000-000-000-000-00000-000000-000-0----------|
***** *****  *** *** *** ***** *****  ***

Guitar 1&2

-------------------------------------------------------|
-------------------------------------------------------|
-------------------------------------------------------|
00000-00000---------------------------------------10---| (x2)
00000-00000-12-10-13-10h12-00000-00000-12-10-10h12--12-|
00000-00000----------------00000-00000-----------------|
***** *****                ***** *****

Guitar 1&2
Riff:2

----------------------------------------------------|
----------------------------------------------------|
----------------------------------------------------|
0~~~-000-000-00-000000-0-0-0-0-00-00-00-00----------|
0~~~-000-000-00-000000-0-0-0-0-00-00-00-00-1-----1--|
0~~~-000-000-00-000000-0-0-0-0-00-00-00-00--3-1h3-3-|
     *** *** ** ****** * * * * ** ** ** **

-------------------------------------------------------|
-------------------------------------------------------|
-------------------------------------------------------|
000-000-000-00-000000-0-0-0-0-00-00-00-00-000-00-00000-|
000-000-000-00-000000-0-0-0-0-00-00-00-00-000-00-00000-|
000-000-000-00-000000-0-0-0-0-00-00-00-00-111-11-11111-|
*** *** *** ** ****** * * * * ** ** ** ** *** ** *****

---------------------------------------------------|
---------------------------------------------------|
---------------------------------------------------|
000-000-000-00-000000-0-0-0-0-00-00-00-00----------|
000-000-000-00-000000-0-0-0-0-00-00-00-00-1-----1--|
000-000-000-00-000000-0-0-0-0-00-00-00-00--3-1h3-3-|
*** *** *** ** ****** * * * * ** ** ** **

000-000-000-00-000000-0-0-0-0-00-00-00-00-000-00-00000-|
000-000-000-00-000000-0-0-0-0-00-00-00-00-000-00-00000-|
000-000-000-00-000000-0-0-0-0-00-00-00-00-111-11-11111-|
*** *** *** ** ****** * * * * ** ** ** ** *** ** *****

Guitar 1
Chorus

-------------------------------------------------------------------|
-------------------------------------------------------------------|
-------------------------------------------------------------------|
0000000000000-8888888-3333333-0000000000000-8888888-10101010101010-|
0000000000000-8888888-3333333-0000000000000-8888888-10101010101010-|
0000000000000-8888888-3333333-0000000000000-8888888-10101010101010-|

-------------------------------------------------------------------|
-------------------------------------------------------------------|
-------------------------------------------------------------------|
0000000000000-8888888-3333333-0000000000000-8888888-10101010101010-|
0000000000000-8888888-3333333-0000000000000-8888888-10101010101010-|
0000000000000-8888888-3333333-0000000000000-8888888-10101010101010-|

Guitar 2
Chorus

------------------------------------------------------------------|
------------------------------------------------------------------|
------------------------------------------------------------------|
000000000000-8888888-3333333-0000000000000-8888888-10101010101010-|
000000000000-8888888-3333333-0000000000000-8888888-10101010101010-|
000000000000-8888888-3333333-0000000000000-8888888-10101010101010-|

17-------------17t-18t-20t-17h18p-17--------------17t-18t-20t-17h18p-|
-18-17-18-20-18---------------------18-17-18-20-18-------------------|
---------------------------------------------------------------------|
---------------------------------------------------------------------|
---------------------------------------------------------------------|
---------------------------------------------------------------------|

Breakdown
Guitar 1&2

0~~~~0-0~~
0~~~~0-0~~
0~~~~0-0~~
*


---------------------------       -----|
---------------------------       -----|
---------------------------       -----|
00-00-000000-0000-0000-0000 (x5?) 0~~--|
00-00-000000-0000-0000-0000       0~~--|
00-00-000000-0000-0000-0000       0~~--|
** ** ****** **** **** ****

Guitar:1
Riff:3

--------------------------------------|
--------------------------------------|
--------------------------------------| (x2)
--------------------------------------|
00000000-00-00-00-00-00000000-999-888-|
00000000-00-00-00-00-00000000---------|
******** ** ** ** ** ******** 

Guitar:2
Riff:3
--------------------------------------------|
--------------------------------------------|
--------------------------------------------|
--------------------------------------------| (x2)
00000000-00-00-00-00-00000000-121212-101010-|
00000000-00-00-00-00-00000000---------------|
******** ** ** ** ** ********


[CHORUS]

[SYNTH PART]

Breakdown
--------------------------------------------------------------------------|
--------------------------------------------------------------------------|
--------------------------------------------------------------------------|
0000~-0000~-0000-0000~----------0000~-0000~-0000~-0000-0000000----------0~|
0000~-0000~-0000-0000~-1-----1--0000~-0000~-0000~-0000-0000000-1-----1--0~|
1111~-1111~-1111-1111~--3-1h3-3-0000~-0000~-0000~-0000-0000000--3-1h3-3-0~|
****  ****  **** ****           ****  ****  ****  **** *******          *
Добавлено: 30.11.2013
Другие материалы по этой песне:

Страница создана 03.08.2013
http://primanota.ru/capture-the-crown/you-call-that-a-knife-this-is-a-knife-chords.htm
Привет, Гость.
Предлагаем пройти революционный курс по гитаре.
Подарок от PrimaNota.Ru, забирай!