PrimaNota.ru - самый крупный в мире бесплатный архив песенных текстов, аккордов, табулатур и нот


Bury Tomorrow - You I - текст песни, таба, видео

Регистрация Запомнить меня
Войти через:  Facebook Google Twitter Vk Yandex Mail.ru

Bury Tomorrow - You I - текст песни, таба, видео

Печатать
Просмотров: 173
Уроки эстрадного вокала в Санкт-Петербурге
---------------------------------------------------------------------
			     You & I – Bury Tomorrow
---------------------------------------------------------------------

Tabbed by: Dweebusonguitar

Email: Dweebycarpet@hotmail.co.uk

Tuning: Drop C – CGCFAD (low to high)

Not sure about guitar 2 and harmonies but will tab out everything I've got for both 
  Enjoy 

Intro (Both guitars) x2

D|-------------------------------------------------------------------|
A|-------------------------------------------------------------------|
F|-------------------------------------------------------------------|
C|-0--------------------3--------------------------------------------|
G|-0-0-0-0-0--0-0-0-0-0-3-0-0-0-0-----/8-7---/7-5--------------------|
C|-0-0-0-0-0--0-0-0-0-0-3-0-0-0-0---0------0------3p0----------------|
     . . . .  . . . . .   . . . .   .      .

Verse x2

D|-------------------------------------------------------------------|
A|-------------------------------------------------------------------|
F|-------------------------------------------------------------------|
C|-------------------------------------------------------------------|
G|-0---3---5-----0---3---5-----0---3---5-----/12---10---8*---0-------|
C|-0-0---0---0-0-0-0---0---0-0-0-0---0---0-0-----0----0------0-------|
     .   .   . .   .   .   . .   .   .   . .     .    .      .
D|-------------------------------------------------------------------|
A|-------------------------------------------------------------------|
F|-------------------------------------------------------------------|
C|--------------------------------------5h7p5---8-7-5----------------|
G|--333-555---0-333-555---0-333-555-0-0------88----------------------|
C|-0--------0-0---------0-0---------0-0------..----------------------|
   .        .	 .           . .

Pre chorus          (10's 12's and 14's ... NOT 1's 0's etc)

D|-------------------------------------------------------------------|
A|-------------------------------------------------------------------|
F|-------10101010101010-------1414141414141414141414141414-----------|
C|-5-5-5-xxxxxxxxxxxxxx-8-8-8-xxxxxxxxxxxxxxxxxxxxxxxxxxxx-----------|
G|-5-5-5-88888888888888-8-8-8-1212121212121212121212121212-----------|
C|-5-5-5----------------8-8-8----------------------------------------|

Chorus x2

D|-------------------------------------------------------------------|
A|-------------------------------------------------------------------|
F|---------------------------------------------------14141414--------|
C|-000000000000000055555555555555553333333333333333--xxxxxxxx--------|
G|-00000000000000003333333333333333111111111111111177121212121010----|
C|-0000000000000000--------------------------------77--------1010----|
D|-------------------------------------------------------------------|
A|-------------------------------------------------------------------|
F|-12121212----------------------------------------------------------|
C|-xxxxxxxx----------------------------------------------------------|
G|-10101010----------------------------------------------------------|
C|-------------------------------------------------------------------|

Breakdown thing (chorus leads straight into it)

D|-------------------------------------------------------------------|
A|-------------------------------------------------------------------|
F|-------------------------------------------------------------------|
C|-0-----------------------------------------------------------------|
G|-0------------------------------/3---------5br---------------------|
C|-0---------------000000--000000----5br-0-3-------------------------|
                   ......  ......
D|-------------------------------------------------------------------|
A|-------------------------------------------------------------------|
F|-------------------------------------------------------------------|
C|-------------------------------------------------------------------|
G|---------------------------------------/3---------5br--------------|
C|-000000-000000-0-000-000-000000-000000----5br-0-3------------------|
   ...... ...... . ... ... ...... ......

Let the open notes ring out more on this one

D|-------------------------------------------------------------------|
A|-------------------------------------------------------------------|
F|-------------------------------------------------------------------|
C|-------------------------------------------------------------------|
G|-000000-000000-0-000-000-000000-000000-/3---------5br--------------|
C|-000000-000000-0-000-000-000000-000000----5br-0-3------------------|
   ...... ...... . ... ... ...... ......
D|-------------------------------------------------------------------|
A|-------------------------------------------------------------------|
F|-------------------------------------------------------------------|
C|-------------------------------------------------------------------|
G|---------------------------------------/3---------5br-/7---------8-|
C|-000000-000000-0-000-000-000000-000000----5br-0-3--------8br-0-7---|
   ...... ...... . ... ... ...... ......

Bridge – Not sure on this but this is how I play it and it sounds ok

D|-------------------------------------------------------------------|
A|-------------------------------------------------------------------|
F|-------------------------------------------------------------------|
C|-------------------------------------------------------------------|
G|-0---8---10---8---7-----3---5-0---8---10---8---7-----5---3---------|
C|-0-0---0----0---0---0-0---0---0-0---0----0---0---0-0---0---0-------|
     .   .    .   .   . .   .   . .   .    .   .   . .   .   .
D|-------------------------------------------------------------------|
A|-------------------------------------------------------------------|
F|-------------------------------------------------------------------|
C|-33333333-55555555-------------------------------------------------|
G|-33333333-55555555-------------------------------------------------|
C|-33333333-55555555-------------------------------------------------|

D|-------------------------------------------------------------------|
A|-------------------------------------------------------------------|
F|-------------------------------------------------------------------|
C|-------------------------------------------------------------------|
G|-0---8---10---8---7-----3---5-0---8---10---8---7-----5---3---------|
C|-0-0---0----0---0---0-0---0---0-0---0----0---0---0-0---0---0-------|
     .   .    .   .   . .   .     .   .    .   .   . .   .   .
D|-------------------------------------------------------------------|
A|-------------------------------------------------------------------|
F|-------------------------------------------------------------------|
C|-33333333----------------------------------------------------------|
G|-33333333---/8-7---/7-5--------------------------------------------|
C|-33333333-0------0------3p0----------------------------------------|
	    .       .

That leads straight back into the intro, then verse again followed by pre chorus and 
a chorus that leads straight into the outro.
This is what I can hear for the outro, not sure if it's 100% correct but it sounds right.

Guitar 1 x2

D|-------------------------------------------------------------------|
A|-------------------------------------------------------------------|
F|-101010-121212121212-101010-121212-999-----------------------------|
C|-xxxxxx-xxxxxxxxxxxx-xxxxxx-xxxxxx-xxx-----------------------------|
G|-888888-101010101010-888888-101010-777-----------------------------|
C|-------------------------------------------------------------------|

D|-------------------------------------------------------------------|
A|-------------------------------------------------------------------|
F|-101010-121212121212-101010-121212--14-12-9------------------------|
C|-xxxxxx-xxxxxxxxxxxx-xxxxxx-xxxxxx---------------------------------|
G|-888888-101010101010-888888-101010---------------------------------|
C|-------------------------------------------------------------------|

Guitar 2 x2

D|-------------------------------------------------------------------|
A|-------------------------------------------------------------------|
F|-------------------------------------------------------------------|
C|-000000-333333-888888-777777---------------------------------------|
G|-000000-333333-888888-777777---------------------------------------|
C|-000000-333333-888888-777777---------------------------------------|

D|-------------------------------------------------------------------|
A|-------------------------------------------------------------------|
F|--------------------------10-9-5-----------------------------------|
C|-000000-333333-888888-777------------------------------------------|
G|-000000-333333-888888-777------------------------------------------|
C|-000000-333333-888888-777------------------------------------------|

Both guitars

D|-------------------------------------------------------------------|
A|-------------------------------------------------------------------|
F|-------------------------------------------------------------------|
C|-------------------------------------------------------------------|
G|-------------------------------------------------------------------|
C|-000000-000000-----------------------------------------------------|
   ...... ......
************************************
| .   palm mute
| /   slide up
| \   slide down
| h   hammer-on
| p   pull-off
| ~   vibrato
| *   harmonic
| x   Mute note
| b   Bend
| pb  Pre-bend
| br  Bend release
| pbr Pre-bend release
| brb Bend release bend

************************************
Добавлено: 22.09.2013
Другие материалы по этой песне:
  • Аккорды и текст

Страница создана 09.08.2013
http://primanota.ru/bury-tomorrow/you-i-chords.htm
Привет, Гость.
Предлагаем пройти революционный курс по гитаре.
Подарок от PrimaNota.Ru, забирай!