PrimaNota.ru - самый крупный в мире бесплатный архив песенных текстов, аккордов, табулатур и нот


Bury Tomorrow - Royal Blood - таба, видео

Регистрация Запомнить меня
Войти через:  Facebook Google Twitter Vk Yandex Mail.ru

Bury Tomorrow - Royal Blood - таба, видео

Печатать
Просмотров: 275
Уроки эстрадного вокала в Санкт-Петербурге
----------------------------------------------------------------------------
                                Royal Blood
                               Bury Tomorrow
----------------------------------------------------------------------------

Wow, there guys do not disappoint. I've been a fan of BT since the beginning of their 
first single, and I've grown addicted to their style. I love this song because the riffs 
kind of remind me of Parkway Drive. I enjoy playing it, and it isn't extremely hard. Enjoy!

Username: dkm817 (same on X box live)
Youtube Cover: http://www.youtube.com/watch?v=M0KnZu6fe2s
Email: guitardrums@rockfan.com

Guitar 1 Rhythmic     (B F# B E G# C#)
Guitar 2 Lead         (B F# B E G# C#)
Guitar 3 Lead (Clean) (B F# B E G# C#)


Tab Guide...

===================================================================
(end of measures)

===================================================================
===================================================================
(end of parts)

===================================================================
===================================================================
===================================================================
(end of song)

(If there is a “continued” it is because the numbers could not
fit on 1 line.)


Intro 1

Guitar 1 (Fade In)
C#-16~~~~~~~~~~~~~~~~~~~~~~~~~~~~~~~~~~~~~~~~~~~~~~~~~~~~~~~~~~~~~-|
G#-----------------------------------------------------------------|
E -----------------------------------------------------------------|
B -----------------------------------------------------------------|
F#-----------------------------------------------------------------|
B -----------------------------------------------------------------|

Guitar 2 (Fade In)
C#-----------------------------------------------------------------|
G#-15~~~~~~~~~~~~~~~~~~~~~~~~~~~~~~~~~~~~~~~~~~~~~~~~~~~~~~~~~~~~~-|
E -----------------------------------------------------------------|
B -----------------------------------------------------------------|
F#-----------------------------------------------------------------|
B -----------------------------------------------------------------|

===================================================================

Guitar 1
C#-----------------------------------------------------------------|
G#-----------------------------------------------------------------|
E -----------------------------------------------------------------|
B -0~~~~~~~~~~~~~~~~~~~~~~~~~~~~~~~~~~~~~~~~~~~~~~~~~~~~~~~~~~~~~~-|
F#-0~~~~~~~~~~~~~~~~~~~~~~~~~~~~~~~~~~~~~~~~~~~~~~~~~~~~~~~~~~~~~~-|
B -0~~~~~~~~~~~~~~~~~~~~~~~~~~~~~~~~~~~~~~~~~~~~~~~~~~~~~~~~~~~~~~-|

Guitar 2
C#-----------------------------------------------------------------|
G#-----------------------------------------------------------------|
E -7---7---7---7---7---7---7---7---7---7---7---7---7b--7b--7b--7b--|
B -----------------------------------------------------------------|
F#-----------------------------------------------------------------|
B -----------------------------------------------------------------|

===================================================================

Guitar 1
C#-----------------------------------------------------------------|
G#-----------------------------------------------------------------|
E -----------------------------------------------------------------|
B -~~~~~~~~~~~~~~~~~~~~~~~~~~~~~~~~~~~~~~~~~~~~~~~~~~~~~~~~~~~~~~~-|
F#-~~~~~~~~~~~~~~~~~~~~~~~~~~~~~~~~~~~~~~~~~~~~~~~~~~~~~~~~~~~~~~~-|
B -~~~~~~~~~~~~~~~~~~~~~~~~~~~~~~~~~~~~~~~~~~~~~~~~~~~~~~~~~~~~~~~-|

Guitar 2
C#-----------------------------------------------------------------|
G#-----------------------------------------------------------------|
E -7b--7b--7b--7b--7r--7r--7r--7r--7---7---7---7---7---7---7---7---|
B -----------------------------------------------------------------|
F#-----------------------------------------------------------------|
B -----------------------------------------------------------------|

===================================================================

Guitar 1
C#-----------------------------------------------------------------|
G#-----------------------------------------------------------------|
E -----------------------------------------------------------------|
B -0~~~~~~~~~~~~~~~~~~~~~~~~~~~~~~~~~~~~~~~~~~~~~~~~~~~~~~~~~~~~~~-|
F#-0~~~~~~~~~~~~~~~~~~~~~~~~~~~~~~~~~~~~~~~~~~~~~~~~~~~~~~~~~~~~~~-|
B -0~~~~~~~~~~~~~~~~~~~~~~~~~~~~~~~~~~~~~~~~~~~~~~~~~~~~~~~~~~~~~~-|

Guitar 2
C#-----------------------------------------------------------------|
G#-----------------------------------------------------------------|
E -7---7---7---7---7---7---7---7---7---7---7---7---7b--7b--7b--7b--|
B -----------------------------------------------------------------|
F#-----------------------------------------------------------------|
B -----------------------------------------------------------------|

===================================================================

Guitar 1
C#-----------------------------------------------------------------|
G#-----------------------------------------------------------------|
E -----------------------------------------------------------------|
B -~~~~~~~~~~~~~~~~~~~~~~~~~~~-0---0-------0-----------------------|
F#-~~~~~~~~~~~~~~~~~~~~~~~~~~~-0---0-------0-----------------------|
B -~~~~~~~~~~~~~~~~~~~~~~~~~~~-0---0-------0-----------------------|
pm                             .   .       .

Guitar 2
C#-----------------------------------------------------------------|
G#-----------------------------------------------------------------|
E -7b--7b--7b--7b--7r--7r--7r--7r----------------------------------|
B -----------------------------------------------------------------|
F#-----------------------------------------------------------------|
B -----------------------------------------------------------------|

===================================================================
===================================================================


Intro 2

(x2)

Guitar 1 & 2
C#-----------------------------------------------------------------|
G#-----------------------------------------------------------------|
E -----------------------------------------------------------------|
B -0---0---0---0---0---0---0---0---0---0-----------0---0---0---0---|
F#-0---0---0---0---0---0---0---0---0---0-----------0---0---0---0---|
B -0---0---0---0---0---0---0---0---0---0-----------0---0---0---0---|
pm .   .   .   .   .   .   .   .   .   .           .   .   .   .

===================================================================

Guitar 1 & 2
C#-----------------------------------------------------------------|
G#-----------------------------------------------------------------|
E -----------------------------------------------------------------|
B ---------0---0---0---0-------------------------------------------|
F#---------0---0---0---0-------------------------------------------|
B ---------0---0---0---0-------------------0---8b~~~~~-0---8b~~~~~-|
pm         .   .   .   .

===================================================================

Guitar 1 & 2
C#-----------------------------------------------------------------|
G#-----------------------------------------------------------------|
E -----------------------------------------------------------------|
B -0---0---0---0---0---0---0---0---0---0-----------0---0---0---0---|
F#-0---0---0---0---0---0---0---0---0---0-----------0---0---0---0---|
B -0---0---0---0---0---0---0---0---0---0-----------0---0---0---0---|
pm .   .   .   .   .   .   .   .   .   .           .   .   .   .

===================================================================

Guitar 1 & 2
C#-----------------------------------------------------------------|
G#-----------------------------------------------------------------|
E -----------------------------------------------------------------|
B -----------------------------------------------------------------|
F#-----------------------------------------------------------------|
B --------/12--12--12--12--12--12--12b-12b-12b-12b-0~~~~~~~~~~~~~~-|

===================================================================
===================================================================


Verse 1

Guitar 1
C#-----------------------------------------------------------------|
G#-----------------------------------------------------------------|
E -----------------------------------------------------------------|
B -----------------------------------------------------------------|
F#-----------------------------------------------------------------|
B -12--12--12--12--12--12--12--12--12--0~~~~~~~~~~-12--12--12--0~~-|

Guitar 2
C#-17--17--17--17--17--17--17--17--17--17--17--17--17--17--17--17--|
G#-----------------------------------------------------------------|
E -----------------------------------------------------------------|
B -----------------------------------------------------------------|
F#-----------------------------------------------------------------|
B -----------------------------------------------------------------|

===================================================================

Guitar 1
C#-----------------------------------------------------------------|
G#-----------------------------------------------------------------|
E -----------------------------------------------------------------|
B -----------------------------------------------------------------|
F#-----------------------------------------------------------------|
B -~~~~~~~-12--12--12--0-------------------0---12b~~~~-0---12b~~~~-|

Guitar 2
C#-17--17--17--17--17--17--17--17--17--17--17--17--17b-17b-17b-17b-|
G#-----------------------------------------------------------------|
E -----------------------------------------------------------------|
B -----------------------------------------------------------------|
F#-----------------------------------------------------------------|
B -----------------------------------------------------------------|

===================================================================

Guitar 1
C#-----------------------------------------------------------------|
G#-----------------------------------------------------------------|
E -----------------------------------------------------------------|
B -----------------------------------------------------------------|
F#-----------------------------------------------------------------|
B -12--12--12--12--12--12--12--12--12--0~~~~~~~~~~-12--12--12--0~~-|

Guitar 2
C#-17b-17b-17b-17b-17b-17b-17b-17b-17b-17b-17b-17b-17b-17b-17b-17b-|
G#-----------------------------------------------------------------|
E -----------------------------------------------------------------|
B -----------------------------------------------------------------|
F#-----------------------------------------------------------------|
B -----------------------------------------------------------------|

===================================================================

Guitar 1
C#-----------------------------------------------------------------|
G#-----------------------------------------------------------------|
E -----------------------------------------------------------------|
B -----------------------------------------------------------------|
F#-----------------------------------------------------------------|
B -~~~~~~-/12--12--12--12--12--12--12b-12b-12b-12b-0~~~~~~~~~~~~~~-|

Guitar 2
C#-17--17--17--17--17--17--17--17--17--17--17--17--17--17--17--17--|
G#-----------------------------------------------------------------|
E -----------------------------------------------------------------|
B -----------------------------------------------------------------|
F#-----------------------------------------------------------------|
B -----------------------------------------------------------------|

===================================================================
===================================================================


Bridge 1

Guitar 1 & 2
C#-----------------------------------------------------------------|
G#-----------------------------------------------------------------|
E -----------------------------------------------------------------|
B -0---0---0---0---0---0---0---0---0---0~~~~~~~~~~-0---0---0---0~~-|
F#-0---0---0---0---0---0---0---0---0---0~~~~~~~~~~-0---0---0---0~~-|
B -0---0---0---0---0---0---0---0---0---0~~~~~~~~~~-0---0---0---0~~-|
pm .   .   .   .   .   .   .   .   .   .           .   .   .   .

===================================================================

Guitar 1 & 2
C#-----------------------------------------------------------------|
G#-----------------------------------------------------------------|
E -----------------------------------------------------------------|
B -~~~~~~~-0---0---0---0-------------------------------------------|
F#-~~~~~~~-0---0---0---0-------------------------------------------|
B -~~~~~~~-0---0---0---0-------------------0---8b~~~~~-0---8b~~~~~-|
pm         .   .   .   .

===================================================================

Guitar 1 & 2
C#-----------------------------------------------------------------|
G#-----------------------------------------------------------------|
E -----------------------------------------------------------------|
B -0---0---0---0---0---0---0---0---0---0~~~~~~~~~~-0---0---0---0~~-|
F#-0---0---0---0---0---0---0---0---0---0~~~~~~~~~~-0---0---0---0~~-|
B -0---0---0---0---0---0---0---0---0---0~~~~~~~~~~-0---0---0---0~~-|
pm .   .   .   .   .   .   .   .   .   .           .   .   .   .

===================================================================

Guitar 1 & 2
C#-----------------------------------------------------------------|
G#-----------------------------------------------------------------|
E -----------------------------------------------------------------|
B -~~~~~~~-0---0---0---0---0---0---0---0---0---0---0---------------|
F#-~~~~~~~-0---0---0---0---0---0---0---0---0---0---0---------------|
B -~~~~~~~-0---0---0---0---0---0---0---0---0---0---0---------------|
pm         .   .   .   .   .   .   .   .   .   .   .

===================================================================
===================================================================


Pre Chorus

Guitar 1
C#-----------------------------------------------------------------|
G#-----------------------------------------------------------------|
E -----------------------------------------------------------------|
B -3~~~~~~~~~~-----------------3~~~~~~~~~~~----------------5~~~~~~-|
F#-3~~~~~~~~~~-----------------3~~~~~~~~~~~----------------5~~~~~~-|
B -3~~~~~~~~~~-----------------3~~~~~~~~~~~----------------5~~~~~~-|

Guitar 2
C#-----------------------------------------------------------------|
G#-----------------------------------------------------------------|
E ---------------4h5p4~~~~~~~~---------------4h5p4~~~~~~~~---------|
B -3~~~~~~~~~~~----------------3~~~~~~~~~~~----------------5~~~~~~-|
F#-3~~~~~~~~~~~----------------3~~~~~~~~~~~----------------5~~~~~~-|
B -3~~~~~~~~~~~----------------3~~~~~~~~~~~----------------5~~~~~~-|

===================================================================

Guitar 1
C#-----------------------------------------------------------------|
G#-----------------------------------------------------------------|
E -----------------------------------------------------------------|
B -7~~~~~~~~~~-----------------5~~~~~~~~~~~----------------2~~~~~~-|
F#-7~~~~~~~~~~-----------------5~~~~~~~~~~~----------------2~~~~~~-|
B -7~~~~~~~~~~-----------------5~~~~~~~~~~~----------------2~~~~~~-|

Guitar 2
C#-----------------------------------------------------------------|
G#-----------------------------------------------------------------|
E ---------------4h5p4~~~~~~~~---------------4h5p4~~~~~~~~---------|
B -7~~~~~~~~~~~----------------5~~~~~~~~~~~----------------2~~~~~~-|
F#-7~~~~~~~~~~~----------------5~~~~~~~~~~~----------------2~~~~~~-|
B -7~~~~~~~~~~~----------------5~~~~~~~~~~~----------------2~~~~~~-|

===================================================================

Guitar 1
C#-----------------------------------------------------------------|
G#-----------------------------------------------------------------|
E ---------------7h8p7~~~~~~~~---------------7h8p7~~~~~~~~---------|
B -3~~~~~~~~~~~----------------3~~~~~~~~~~~----------------5~~~~~~-|
F#-3~~~~~~~~~~~----------------3~~~~~~~~~~~----------------5~~~~~~-|
B -3~~~~~~~~~~~----------------3~~~~~~~~~~~----------------5~~~~~~-|

Guitar 2
C#-----------------------------------------------------------------|
G#-----------------------------------------------------------------|
E ---------------4h5p4~~~~~~~~---------------4h5p4~~~~~~~~---------|
B -3~~~~~~~~~~~----------------3~~~~~~~~~~~----------------5~~~~~~-|
F#-3~~~~~~~~~~~----------------3~~~~~~~~~~~----------------5~~~~~~-|
B -3~~~~~~~~~~~----------------3~~~~~~~~~~~----------------5~~~~~~-|

===================================================================

Guitar 1
C#-----------------------------------------------------------------|
G#-----------------------------------------------------------------|
E ---------------7h8p7~~~~~~~~-------------------------------------|
B -7~~~~~~~~~~~----------------7-7-5---5---5---5---5---------------|
F#-7~~~~~~~~~~~----------------7-7-5---5---5---5---5---------------|
B -7~~~~~~~~~~~----------------7-7-5---5---5---5---5---------------|
pm                                 .   .   .   .   .

Guitar 2
C#-----------------------------------------------------------------|
G#-----------------------------------------------------------------|
E ---------------4h5p4~~~~~~~~-------------------------------------|
B -7~~~~~~~~~~~----------------7-7-5---5---5---5---5---------------|
F#-7~~~~~~~~~~~----------------7-7-5---5---5---5---5---------------|
B -7~~~~~~~~~~~----------------7-7-5---5---5---5---5---------------|
pm                                 .   .   .   .   .

===================================================================
===================================================================


Chorus

Guitar 1
C#-----------------------------------------------------------------|
G#-----------------------------------------------------------------|
E -----------------------------------------------------------------|
B -3---3---3---3---3---3---3---3---2---2---2---2---2---2---2---2---|
F#-3---3---3---3---3---3---3---3---2---2---2---2---2---2---2---2---|
B -3---3---3---3---3---3---3---3---2---2---2---2---2---2---2---2---|

Guitar 2
C#-------------15~~~~~---------------------------------------------|
G#-----12--13----------13~~~~~-12~~~~~-12~b~r~-----12--------------|
E -14------------------------------------------14------14--12--14--|
B -----------------------------------------------------------------|
F#-----------------------------------------------------------------|
B -----------------------------------------------------------------|

===================================================================

Guitar 1
C#-----------------------------------------------------------------|
G#-----------------------------------------------------------------|
E -----------------------------------------------------------------|
B -7---7---7---7---7---7---7---7---5---5---5---5---5---5---5---5---|
F#-7---7---7---7---7---7---7---7---5---5---5---5---5---5---5---5---|
B -7---7---7---7---7---7---7---7---5---5---5---5---5---5---5---5---|

Guitar 2
C#-------------15~~~~~-----------------------------13--15----------|
G#-----12--13----------13~~~~~-12~~~~~-15h17-15-17---------12--13--|
E -14--------------------------------------------------------------|
B -----------------------------------------------------------------|
F#-----------------------------------------------------------------|
B -----------------------------------------------------------------|

===================================================================

Guitar 1
C#-----------------------------------------------------------------|
G#-----------------------------------------------------------------|
E -----------------------------------------------------------------|
B -3---3---3---3---3---3---3---3---2---2---2---2---2---2---2---2---|
F#-3---3---3---3---3---3---3---3---2---2---2---2---2---2---2---2---|
B -3---3---3---3---3---3---3---3---2---2---2---2---2---2---2---2---|

Guitar 2
C#-------------15~~~~~---------------------------------------------|
G#-----12--13----------13~~~~~-12~~~~~-12~b~r~-----12--------------|
E -14------------------------------------------14------14--12--14--|
B -----------------------------------------------------------------|
F#-----------------------------------------------------------------|
B -----------------------------------------------------------------|

===================================================================

Guitar 1
C#-----------------------------------------------------------------|
G#-----------------------------------------------------------------|
E -----------------------------------------------------------------|
B -7---7---7---7---7---7---7---7---5---5---5---5---5---5---5---5---|
F#-7---7---7---7---7---7---7---7---5---5---5---5---5---5---5---5---|
B -7---7---7---7---7---7---7---7---5---5---5---5---5---5---5---5---|

Guitar 2
C#-------------15~~~~~-------------------------------12h13h12~~~~~-|
G#-----12--13----------13~~~~~-12~~~~~-15h17-15~~~~~---------------|
E -14--------------------------------------------------------------|
B -----------------------------------------------------------------|
F#-----------------------------------------------------------------|
B -----------------------------------------------------------------|

===================================================================

Guitar 1
C#-----------------------------------------------------------------|
G#-----------------------------------------------------------------|
E -----------------------------------------------------------------|
B -3---3---3---3---3---3---3---3---2---2---2---2---2---2---2---2---|
F#-3---3---3---3---3---3---3---3---2---2---2---2---2---2---2---2---|
B -3---3---3---3---3---3---3---3---2---2---2---2---2---2---2---2---|
pm     .   .       .       .           .   .       .       .

Guitar 2 (harmony 3 frets up)
C#-------------15~~~~~---------------------------------------------|
G#-----12--13----------13~~~~~-12~~~~~-12~b~r~-----12--------------|
E -14------------------------------------------14------14--12--14--|
B -----------------------------------------------------------------|
F#-----------------------------------------------------------------|
B -----------------------------------------------------------------|

===================================================================

Guitar 1
C#-----------------------------------------------------------------|
G#-----------------------------------------------------------------|
E -----------------------------------------------------------------|
B -7---7---7---7---7---7---7---7---5---5---5---5---5---5---5---5---|
F#-7---7---7---7---7---7---7---7---5---5---5---5---5---5---5---5---|
B -7---7---7---7---7---7---7---7---5---5---5---5---5---5---5---5---|
pm     .   .       .       .           .   .       .       .

Guitar 2
C#-------------15~~~~~-----------------------------13--15----------|
G#-----12--13----------13~~~~~-12~~~~~-15h17-15-17---------12--13--|
E -14--------------------------------------------------------------|
B -----------------------------------------------------------------|
F#-----------------------------------------------------------------|
B -----------------------------------------------------------------|

===================================================================

Guitar 1
C#-----------------------------------------------------------------|
G#-----------------------------------------------------------------|
E -----------------------------------------------------------------|
B -3---3---3---3---3---3---3---3---2---2---2---2---2---2---2---2---|
F#-3---3---3---3---3---3---3---3---2---2---2---2---2---2---2---2---|
B -3---3---3---3---3---3---3---3---2---2---2---2---2---2---2---2---|
pm     .   .       .       .           .   .       .       .

Guitar 2
C#-------------15~~~~~---------------------------------------------|
G#-----12--13----------13~~~~~-12~~~~~-12~b~r~-----12--------------|
E -14------------------------------------------14------14--12--14--|
B -----------------------------------------------------------------|
F#-----------------------------------------------------------------|
B -----------------------------------------------------------------|

===================================================================

Guitar 1
C#-----------------------------------------------------------------|
G#-----------------------------------------------------------------|
E -----------------------------------------------------------------|
B -7---7---7---7---7---7---7---7---5---5---5---5---5---5---5---5---|
F#-7---7---7---7---7---7---7---7---5---5---5---5---5---5---5---5---|
B -7---7---7---7---7---7---7---7---5---5---5---5---5---5---5---5---|
pm     .   .       .       .           .   .       .       .

Guitar 2
C#-------------15~~~~~-------------------------------12h13h12~~~~~-|
G#-----12--13----------13~~~~~-12~~~~~-15h17-15~~~~~---------------|
E -14--------------------------------------------------------------|
B -----------------------------------------------------------------|
F#-----------------------------------------------------------------|
B -----------------------------------------------------------------|

===================================================================
===================================================================


Bridge 2

Guitar 1
C#-------------|
G#-------------|
E -------------|
B -3\~~~~~~~~~-
F#-3\~~~~~~~~~-
B -3\~~~~~~~~~-

==================================================================

Guitar 1
C#-----------------------------------------------------------------|
G#-----------------------------------------------------------------|
E -----------------------------------------------------------------|
B -0~~~~~~~~~~~~~~~~~~~~~~~~~~~~~~~~~~~~~~~~~~~~~~~~~~~~~~~~~~~~~~-|
F#-0~~~~~~~~~~~~~~~~~~~~~~~~~~~~~~~~~~~~~~~~~~~~~~~~~~~~~~~~~~~~~~-|
B -0~~~~~~~~~~~~~~~~~~~~~~~~~~~~~~~~~~~~~~~~~~~~~~~~~~~~~~~~~~~~~~-|

Guitar 2 (Fade In)
C#-----------------------------------------------------------------|
G#-----------------------------------------------------------------|
E -----------------------------------------------------------------|
B ---------------------7-------------------------------------------|
F#-------------------------6---5~b~r-8-8-8-------------------------|
B -0---0-------0---0-------------------------0-------10-10-10--0---|

===================================================================

Guitar 1
C#-----------------------------------------------------------------|
G#-----------------------------------------------------------------|
E -----------------------------------------------------------------|
B -~~~~~~~~~~~~~~~~~~~~~~~~~~~~~~~~~~~~~~~~~~~~~~~~~~~~~~~~~~~~~~~-|
F#-~~~~~~~~~~~~~~~~~~~~~~~~~~~~~~~~~~~~~~~~~~~~~~~~~~~~~~~~~~~~~~~-|
B -~~~~~~~~~~~~~~~~~~~~~~~~~~~~~~~~~~~~~~~~~~~~~~~~~~~~~~~~~~~~~~~-|

Guitar 2
C#-----------------------------------------------------------------|
G#-----------------------------------------------------------------|
E -----------------------------------------------------------------|
B ---------------------7-------------------------------------------|
F#-------------------------6---5~b~r~~-----12--8-------8---7-------|
B -0---0-------0---0-------------------8-----------5-----------5---|
pm                                     .           .

===================================================================

Guitar 2
C#-----------------------------------------------------------------|
G#-----------------------------------------------------------------|
E -----------------------------------------------------------------|
B ---------------------7-------------------------------------------|
F#-------------------------6---5~b~r-8-8-8-------------------------|
B -0---0-------0---0-------------------------0-------10-10-10--0---|

===================================================================

Guitar 1
C#-----------------------------------------------------------------|
G#-----------------------------------------------------------------|
E -----------------------------------------------------------------|
B -----------------------------------------------------------------|
F#---------------------------------ps\~~~~~~~~~~~~~~~~~~~~~~~~~~~~-|
B ---------------------------------ps\~~~~~~~~~~~~~~~~~~~~~~~~~~~~-|

Guitar 2
C#-----------------------------------------------------------------|
G#-----------------------------------------------------------------|
E -----------------------------------------------------------------|
B ---------------------7-------------------------------------------|
F#-------------------------6---5~~---------7-7-7-7---------8-8-8-8-|
B -0---0-------0---0---------------3-3-3-3---------5-5-5-5---------|

===================================================================

Guitar 1 & 2
C#-------------|
G#-------------|
E -------------|
B -------------|
F#-------------|
B -0-----------|

===================================================================
===================================================================


Verse 2

Guitar 1 & 2
C#-----------------------------------------------------------------|
G#-----------------------------------------------------------------|
E -----------------------------------------------------------------|
B ---------------------7-------------------------------------------|
F#-------------------------6---5~b~r-8-8-8-------------------------|
B -0---0-------0---0-------------------------0-------10-10-10--0---|

===================================================================

Guitar 1 & 2
C#-----------------------------------------------------------------|
G#-----------------------------------------------------------------|
E -----------------------------------------------------------------|
B ---------------------7-------------------------------------------|
F#-------------------------6---5~b~r~~-----12--8-------8---7-------|
B -0---0-------0---0-------------------8-----------5-----------5---|
pm                                     .           .

===================================================================

Guitar 1 & 2
C#-----------------------------------------------------------------|
G#-----------------------------------------------------------------|
E -----------------------------------------------------------------|
B ---------------------7-------------------------------------------|
F#-------------------------6---5~b~r-8-8-8-------------------------|
B -0---0-------0---0-------------------------0-------10-10-10--0---|

===================================================================

Guitar 1 & 2
C#-----------------------------------------------------------------|
G#-----------------------------------------------------------------|
E -----------------------------------------------------------------|
B ---------------------7-------------------------------------------|
F#-------------------------6---5~~---------7-7-7-7---------8-8-8-8-|
B -0---0-------0---0---------------3-3-3-3---------5-5-5-5---------|

===================================================================

Guitar 1 & 2
C#-----------------------------------------------------------------|
G#-----------------------------------------------------------------|
E -----------------------------------------------------------------|
B ---------------------7-------------------------------------------|
F#-------------------------6---5~b~r-8-8-8-------------------------|
B -0---0-------0---0-------------------------0-------10-10-10--0---|

===================================================================

Guitar 1
C#-----------------------------------------------------------------|
G#-----------------------------------------------------------------|
E -----------------------------------------------------------------|
B ---------------------7-------------------------------------------|
F#-------------------------6---5~b~r~~-----12--8-------8---7-------|
B -0---0-------0---0-------------------8-----------5-----------5---|
pm                                     .           .

Guitar 2
C#-----------------------------------------------------------------|
G#-----------------------------------------------------------------|
E -----------------------------------------------------------------|
B ---------------------7-------------------10--7-------7---5-------|
F#-------------------------6---5~b~r~~-----------------------------|
B -0---0-------0---0-------------------8-----------5-----------5---|
pm                                     .           .


===================================================================

Guitar 1 & 2
C#-----------------------------------------------------------------|
G#-----------------------------------------------------------------|
E -----------------------------------------------------------------|
B ---------------------7-------------------------------------------|
F#-------------------------6---5~b~r-8-8-8-------------------------|
B -0---0-------0---0-------------------------0-------10-10-10--0---|

===================================================================

Guitar 1
C#-----------------------------------------------------------------|
G#-----------------------------------------------------------------|
E -----------------------------------------------------------------|
B ---------------------7-------------------------------------------|
F#-------------------------6---5~~---------7-7-7-7---------8-8-8-8-|
B -0---0-------0---0---------------3-3-3-3---------5-5-5-5---------|

Guitar 2
C#-------------------------------------------------------------------------|
G#-------------------------------------------------------------------------|
E -------------------------------------------------------------------------|
B ---------------------7---------------------------------------------------|
F#-------------------------6---5~~---------10-10-10-10---------12-12-12-12-|
B -0---0-------0---0---------------7-7-7-7-------------9-9-9-9-------------|

===================================================================
===================================================================


Pre Chorus

Guitar 1
C#-----------------------------------------------------------------|
G#-----------------------------------------------------------------|
E -----------------------------------------------------------------|
B -3~~~~~~~~~~-----------------3~~~~~~~~~~~----------------5~~~~~~-|
F#-3~~~~~~~~~~-----------------3~~~~~~~~~~~----------------5~~~~~~-|
B -3~~~~~~~~~~-----------------3~~~~~~~~~~~----------------5~~~~~~-|

Guitar 2
C#-----------------------------------------------------------------|
G#-----------------------------------------------------------------|
E ---------------4h5p4~~~~~~~~---------------4h5p4~~~~~~~~---------|
B -3~~~~~~~~~~~----------------3~~~~~~~~~~~----------------5~~~~~~-|
F#-3~~~~~~~~~~~----------------3~~~~~~~~~~~----------------5~~~~~~-|
B -3~~~~~~~~~~~----------------3~~~~~~~~~~~----------------5~~~~~~-|

===================================================================

Guitar 1
C#-----------------------------------------------------------------|
G#-----------------------------------------------------------------|
E -----------------------------------------------------------------|
B -7~~~~~~~~~~-----------------5~~~~~~~~~~~----------------2~~~~~~-|
F#-7~~~~~~~~~~-----------------5~~~~~~~~~~~----------------2~~~~~~-|
B -7~~~~~~~~~~-----------------5~~~~~~~~~~~----------------2~~~~~~-|

Guitar 2
C#-----------------------------------------------------------------|
G#-----------------------------------------------------------------|
E ---------------4h5p4~~~~~~~~---------------4h5p4~~~~~~~~---------|
B -7~~~~~~~~~~~----------------5~~~~~~~~~~~----------------2~~~~~~-|
F#-7~~~~~~~~~~~----------------5~~~~~~~~~~~----------------2~~~~~~-|
B -7~~~~~~~~~~~----------------5~~~~~~~~~~~----------------2~~~~~~-|

===================================================================

Guitar 1
C#-----------------------------------------------------------------|
G#-----------------------------------------------------------------|
E ---------------7h8p7~~~~~~~~---------------7h8p7~~~~~~~~---------|
B -3~~~~~~~~~~~----------------3~~~~~~~~~~~----------------5~~~~~~-|
F#-3~~~~~~~~~~~----------------3~~~~~~~~~~~----------------5~~~~~~-|
B -3~~~~~~~~~~~----------------3~~~~~~~~~~~----------------5~~~~~~-|

Guitar 2
C#-----------------------------------------------------------------|
G#-----------------------------------------------------------------|
E ---------------4h5p4~~~~~~~~---------------4h5p4~~~~~~~~---------|
B -3~~~~~~~~~~~----------------3~~~~~~~~~~~----------------5~~~~~~-|
F#-3~~~~~~~~~~~----------------3~~~~~~~~~~~----------------5~~~~~~-|
B -3~~~~~~~~~~~----------------3~~~~~~~~~~~----------------5~~~~~~-|

===================================================================

Guitar 1
C#-----------------------------------------------------------------|
G#-----------------------------------------------------------------|
E ---------------7h8p7~~~~~~~~-------------------------------------|
B -7~~~~~~~~~~~----------------7-7-5---5---5---5---5---------------|
F#-7~~~~~~~~~~~----------------7-7-5---5---5---5---5---------------|
B -7~~~~~~~~~~~----------------7-7-5---5---5---5---5---------------|
pm                                 .   .   .   .   .

Guitar 2
C#-----------------------------------------------------------------|
G#-----------------------------------------------------------------|
E ---------------4h5p4~~~~~~~~-------------------------------------|
B -7~~~~~~~~~~~----------------7-7-5---5---5---5---5---------------|
F#-7~~~~~~~~~~~----------------7-7-5---5---5---5---5---------------|
B -7~~~~~~~~~~~----------------7-7-5---5---5---5---5---------------|
pm                                 .   .   .   .   .

===================================================================
===================================================================


Chorus

Guitar 1
C#-----------------------------------------------------------------|
G#-----------------------------------------------------------------|
E -----------------------------------------------------------------|
B -3---3---3---3---3---3---3---3---2---2---2---2---2---2---2---2---|
F#-3---3---3---3---3---3---3---3---2---2---2---2---2---2---2---2---|
B -3---3---3---3---3---3---3---3---2---2---2---2---2---2---2---2---|

Guitar 2
C#-------------15~~~~~---------------------------------------------|
G#-----12--13----------13~~~~~-12~~~~~-12~b~r~-----12--------------|
E -14------------------------------------------14------14--12--14--|
B -----------------------------------------------------------------|
F#-----------------------------------------------------------------|
B -----------------------------------------------------------------|

===================================================================

Guitar 1
C#-----------------------------------------------------------------|
G#-----------------------------------------------------------------|
E -----------------------------------------------------------------|
B -7---7---7---7---7---7---7---7---5---5---5---5---5---5---5---5---|
F#-7---7---7---7---7---7---7---7---5---5---5---5---5---5---5---5---|
B -7---7---7---7---7---7---7---7---5---5---5---5---5---5---5---5---|

Guitar 2
C#-------------15~~~~~-----------------------------13--15----------|
G#-----12--13----------13~~~~~-12~~~~~-15h17-15-17---------12--13--|
E -14--------------------------------------------------------------|
B -----------------------------------------------------------------|
F#-----------------------------------------------------------------|
B -----------------------------------------------------------------|

===================================================================

Guitar 1
C#-----------------------------------------------------------------|
G#-----------------------------------------------------------------|
E -----------------------------------------------------------------|
B -3---3---3---3---3---3---3---3---2---2---2---2---2---2---2---2---|
F#-3---3---3---3---3---3---3---3---2---2---2---2---2---2---2---2---|
B -3---3---3---3---3---3---3---3---2---2---2---2---2---2---2---2---|

Guitar 2
C#-------------15~~~~~---------------------------------------------|
G#-----12--13----------13~~~~~-12~~~~~-12~b~r~-----12--------------|
E -14------------------------------------------14------14--12--14--|
B -----------------------------------------------------------------|
F#-----------------------------------------------------------------|
B -----------------------------------------------------------------|

===================================================================

Guitar 1
C#-----------------------------------------------------------------|
G#-----------------------------------------------------------------|
E -----------------------------------------------------------------|
B -7---7---7---7---7---7---7---7---5---5---5---5---5---5---5---5---|
F#-7---7---7---7---7---7---7---7---5---5---5---5---5---5---5---5---|
B -7---7---7---7---7---7---7---7---5---5---5---5---5---5---5---5---|

Guitar 2
C#-------------15~~~~~-------------------------------12h13h12~~~~~-|
G#-----12--13----------13~~~~~-12~~~~~-15h17-15~~~~~---------------|
E -14--------------------------------------------------------------|
B -----------------------------------------------------------------|
F#-----------------------------------------------------------------|
B -----------------------------------------------------------------|

===================================================================

Guitar 1
C#-----------------------------------------------------------------|
G#-----------------------------------------------------------------|
E -----------------------------------------------------------------|
B -3---3---3---3---3---3---3---3---2---2---2---2---2---2---2---2---|
F#-3---3---3---3---3---3---3---3---2---2---2---2---2---2---2---2---|
B -3---3---3---3---3---3---3---3---2---2---2---2---2---2---2---2---|
pm     .   .       .       .           .   .       .       .

Guitar 2 (harmony 3 frets up)
C#-------------15~~~~~---------------------------------------------|
G#-----12--13----------13~~~~~-12~~~~~-12~b~r~-----12--------------|
E -14------------------------------------------14------14--12--14--|
B -----------------------------------------------------------------|
F#-----------------------------------------------------------------|
B -----------------------------------------------------------------|

===================================================================

Guitar 1
C#-----------------------------------------------------------------|
G#-----------------------------------------------------------------|
E -----------------------------------------------------------------|
B -7---7---7---7---7---7---7---7---5---5---5---5---5---5---5---5---|
F#-7---7---7---7---7---7---7---7---5---5---5---5---5---5---5---5---|
B -7---7---7---7---7---7---7---7---5---5---5---5---5---5---5---5---|
pm     .   .       .       .           .   .       .       .

Guitar 2
C#-------------15~~~~~-----------------------------13--15----------|
G#-----12--13----------13~~~~~-12~~~~~-15h17-15-17---------12--13--|
E -14--------------------------------------------------------------|
B -----------------------------------------------------------------|
F#-----------------------------------------------------------------|
B -----------------------------------------------------------------|

===================================================================

Guitar 1
C#-----------------------------------------------------------------|
G#-----------------------------------------------------------------|
E -----------------------------------------------------------------|
B -3---3---3---3---3---3---3---3---2---2---2---2---2---2---2---2---|
F#-3---3---3---3---3---3---3---3---2---2---2---2---2---2---2---2---|
B -3---3---3---3---3---3---3---3---2---2---2---2---2---2---2---2---|
pm     .   .       .       .           .   .       .       .

Guitar 2
C#-------------15~~~~~---------------------------------------------|
G#-----12--13----------13~~~~~-12~~~~~-12~b~r~-----12--------------|
E -14------------------------------------------14------14--12--14--|
B -----------------------------------------------------------------|
F#-----------------------------------------------------------------|
B -----------------------------------------------------------------|

===================================================================

Guitar 1
C#-----------------------------------------------------------------|
G#-----------------------------------------------------------------|
E -----------------------------------------------------------------|
B -7---7---7---7---7---7---7---7---5---5---5---5---5---5---5---5---|
F#-7---7---7---7---7---7---7---7---5---5---5---5---5---5---5---5---|
B -7---7---7---7---7---7---7---7---5---5---5---5---5---5---5---5---|
pm     .   .       .       .           .   .       .       .

Guitar 2
C#-------------15~~~~~-------------------------------12h13h12~~~~~-|
G#-----12--13----------13~~~~~-12~~~~~-15h17-15~~~~~---------------|
E -14--------------------------------------------------------------|
B -----------------------------------------------------------------|
F#-----------------------------------------------------------------|
B -----------------------------------------------------------------|

===================================================================
===================================================================


Interlude

Guitar 1
C#-----------------------------------------------------------------|
G#-----------------------------------------------------------------|
E -----------------------------------------------------------------|
B -3~~~~~~~~~~~~~~~~~~~~~~~~~~~~~~~~~~~~~~~~~~~~~~~~~~~~~~~~~~~~~~-|
F#-3~~~~~~~~~~~~~~~~~~~~~~~~~~~~~~~~~~~~~~~~~~~~~~~~~~~~~~~~~~~~~~-|
B -3~~~~~~~~~~~~~~~~~~~~~~~~~~~~~~~~~~~~~~~~~~~~~~~~~~~~~~~~~~~~~~-|

Guitar 2
C#-12~~~~~~~~~~~~~~~~~~~~~~~~~~~~~~~~~~~~~~~~~~~~~~~~~~~~~~~~~~~~~-|
G#-----------------------------------------------------------------|
E -----------------------------------------------------------------|
B -----------------------------------------------------------------|
F#-----------------------------------------------------------------|
B -----------------------------------------------------------------|

Guitar 3 (Delay effect)
C#-----------------------------------------------------------------|
G#---------10~~~~~~~~~~~-8~~~~~~~~~~~~~~~~-13~~~~~~~~~~-10~~~~~~~~-|
E -----------------------------------------------------------------|
B -----7~~~~~~~~~~~~-5~~~~~~~~~~~~~~~~-10~~~~~~~~~~~-9~~~~~~~~~~~~-|
F#-8~~~~~~~~~~~~-7~~~~~~~~~~~~~~~~-12~~~~~~~~~~~-10~~~~~~~~~~~~~~~-|
B -----------------------------------------------------------------|

===================================================================

Guitar 3
C#-----------------------------------------------------------------|
G#---------10~~~~~~~~~~~-8~~~~~~~~~~~~~~~~-13~~~~~~~~~~-10~~~~~~~~-|
E -----------------------------------------------------------------|
B -----7~~~~~~~~~~~~-5~~~~~~~~~~~~~~~~-10~~~~~~~~~~~-9~~~~~~~~~~~~-|
F#-8~~~~~~~~~~~~-7~~~~~~~~~~~~~~~~-12~~~~~~~~~~~-10~~~~~~~~~~~~~~~-|
B -----------------------------------------------------------------|

===================================================================

Guitar 1
C#-24~~~~~-17~~~-19~~~~~~~~~~~~~~~---------------12~~~~~~~~~~~~~~~-|
G#---------------------------------13~~~~~~~~~~~-------------------|
E -----------------------------------------------------------------|
B -----------------------------------------------------------------|
F#-----------------------------------------------------------------|
B -----------------------------------------------------------------|

Guitar 3
C#-----------------------------------------------------------------|
G#---------10~~~~~~~~~~~-8~~~~~~~~~~~~~~~~-13~~~~~~~~~~-10~~~~~~~~-|
E -----------------------------------------------------------------|
B -----7~~~~~~~~~~~~-5~~~~~~~~~~~~~~~~-10~~~~~~~~~~~-9~~~~~~~~~~~~-|
F#-8~~~~~~~~~~~~-7~~~~~~~~~~~~~~~~-12~~~~~~~~~~~-10~~~~~~~~~~~~~~~-|
B -----------------------------------------------------------------|

===================================================================

Guitar 1
C#-15~~~~~-17~~~-19~~~~~~~~~~~~~~~-12~~~~~~~~~~~~~~~---------------|
G#---------------------------------------------------15~~~~~~~~~~~-|
E -----------------------------------------------------------------|
B -----------------------------------------------------------------|
F#-----------------------------------------------------------------|
B -----------------------------------------------------------------|

Guitar 3
C#-----------------------------------------------------------------|
G#---------10~~~~~~~~~~~-8~~~~~~~~~~~~~~~~-13~~~~~~~~~~-10~~~~~~~~-|
E -----------------------------------------------------------------|
B -----7~~~~~~~~~~~~-5~~~~~~~~~~~~~~~~-10~~~~~~~~~~~-9~~~~~~~~~~~~-|
F#-8~~~~~~~~~~~~-7~~~~~~~~~~~~~~~~-12~~~~~~~~~~~-10~~~~~~~~~~~~~~~-|
B -----------------------------------------------------------------|

===================================================================

Guitar 1
C#-24~~~~~-17~~~-19~~~~~~~~~~~~~~~---------------12~~~~~~~~~~~~~~~-|
G#---------------------------------13~~~~~~~~~~~-------------------|
E -----------------------------------------------------------------|
B -----------------------------------------------------------------|
F#-----------------------------------------------------------------|
B -----------------------------------------------------------------|

Guitar 3
C#-----------------------------------------------------------------|
G#---------10~~~~~~~~~~~-8~~~~~~~~~~~~~~~~-13~~~~~~~~~~-10~~~~~~~~-|
E -----------------------------------------------------------------|
B -----7~~~~~~~~~~~~-5~~~~~~~~~~~~~~~~-10~~~~~~~~~~~-9~~~~~~~~~~~~-|
F#-8~~~~~~~~~~~~-7~~~~~~~~~~~~~~~~-12~~~~~~~~~~~-10~~~~~~~~~~~~~~~-|
B -----------------------------------------------------------------|

===================================================================

Guitar 1
C#-~~~~~~~~~~~~~~~~~~~~~~~~~~~~~~~~~~~~~~~~~~~~~~~~~~~~~~~~~~~~~~~-|
G#-----------------------------------------------------------------|
E -----------------------------------------------------------------|
B -----------------------------------------------------------------|
F#-----------------------------------------------------------------|
B -----------------------------------------------------------------|

Guitar 3
C#-----------------------------------------------------------------|
G#-~~~~~~~~~~~~~~~~~~~~~~~~~~~~~~~~~~~~~~~~~~~~~~~~~~~~~~~~~~~~~~~-|
E -----------------------------------------------------------------|
B -~~~~~~~~~~~~~~~~~~~~~~~~~~~~~~~~~~~~~~~~~~~~~~~~~~~~~~~~~~~~~~~-|
F#-~~~~~~~~~~~~~~~~~~~~~~~~~~~~~~~~~~~~~~~~~~~~~~~~~~~~~~~~~~~~~~~-|
B -----------------------------------------------------------------|

===================================================================
===================================================================


Outro

(x2)

Guitar 1
C#-----------------------------------------------------------------|
G#-----------------------------------------------------------------|
E -----------------------------------------------------------------|
B -3---3---3---3---3---3---3---3---3---3---3---3---3---5---5---5---|
F#-3---3---3---3---3---3---3---3---3---3---3---3---3---5---5---5---|
B -3---3---3---3---3---3---3---3---3---3---3---3---3---5---5---5---|

Guitar 2
C#-----------------------------------------------------------------|
G#-10~~~~~~~~~-8~~~~~~~~~~---------10~~~~~~~~~-8~~~~~~~~~~---------|
E -----------------------------------------------------------------|
B -------------------------10~~~~~-------------------------10~~~~~-|
F#-----------------------------------------------------------------|
B -----------------------------------------------------------------|

===================================================================

Guitar 1
C#-----------------------------------------------------------------|
G#-----------------------------------------------------------------|
E -----------------------------------------------------------------|
B -7---7---7---7---7---7---7---7---7---7---7---7---7---9---9---9---|
F#-7---7---7---7---7---7---7---7---7---7---7---7---7---9---9---9---|
B -7---7---7---7---7---7---7---7---7---7---7---7---7---9---9---9---|

Guitar 2
C#-----------------------------------------------------------------|
G#-10~~~~~~~~~-8~~~~~~~~~~---------10~~~~~~~~~-8~~~~~~~~~~---------|
E -----------------------------------------------------------------|
B -------------------------10~~~~~-------------------------10~~~~~-|
F#-----------------------------------------------------------------|
B -----------------------------------------------------------------|

===================================================================

Guitar 1
C#-----------------------------------------------------------------|
G#-----------------------------------------------------------------|
E -----------------------------------------------------------------|
B -10--10--10--10--10--10--10--10--10--10--10--10--10--12--12--12--|
F#-10--10--10--10--10--10--10--10--10--10--10--10--10--12--12--12--|
B -10--10--10--10--10--10--10--10--10--10--10--10--10--12--12--12--|

Guitar 2
C#-----------------------------------------------------------------|
G#-10~~~~~~~~~-8~~~~~~~~~~---------10~~~~~~~~~-8~~~~~~~~~~---------|
E -----------------------------------------------------------------|
B -------------------------10~~~~~-------------------------10~~~~~-|
F#-----------------------------------------------------------------|
B -----------------------------------------------------------------|

===================================================================

Guitar 1
C#-----------------------------------------------------------------|
G#-----------------------------------------------------------------|
E -----------------------------------------------------------------|
B -3---3---3---3---3---3---3---3---5---5---5---5---5---5---5---5---|
F#-3---3---3---3---3---3---3---3---5---5---5---5---5---5---5---5---|
B -3---3---3---3---3---3---3---3---5---5---5---5---5---5---5---5---|

Guitar 2
C#-----------------------------------------------------------------|
G#-10~~~~~~~~~-8~~~~~~~~~~---------10~~~~~~~~~-8~~~~~~~~~~---------|
E -----------------------------------------------------------------|
B -------------------------10~~~~~-------------------------10~~~~~-|
F#-----------------------------------------------------------------|
B -----------------------------------------------------------------|

===================================================================

Guitar 1
C#-----------------------------------------------------------------|
G#-----------------------------------------------------------------|
E -----------------------------------------------------------------|
B -3~~~~~~~~~~~~~~~~~~~~~~~~~~~~~~~~~~~~~~~~~~~~~~~~~~~~~~~~~~~~~~-|
F#-3~~~~~~~~~~~~~~~~~~~~~~~~~~~~~~~~~~~~~~~~~~~~~~~~~~~~~~~~~~~~~~-|
B -3~~~~~~~~~~~~~~~~~~~~~~~~~~~~~~~~~~~~~~~~~~~~~~~~~~~~~~~~~~~~~~-|

Guitar 2
C#-----------------------------------------------------------------|
G#-10~~~~~~~~~~~~~~~~~~~~~~~~~~~~~~~~~~~~~~~~~~~~~~~~~~~~~~~~~~~~~-|
E -----------------------------------------------------------------|
B -----------------------------------------------------------------|
F#-----------------------------------------------------------------|
B -----------------------------------------------------------------|

===================================================================
===================================================================
===================================================================


Tab Legend
h  -  hammer-on
p  -  pull-off
/  -  slide up
\  -  slide down
ps/-  pickslide up
ps\-  pickslide down
~  -  let ring
pm.-  palm mute
b  -  bend
r  -  return from bend
*  -  harmonic
x  -  dead note
^  -  Whammy bar
^\ -  Whammy bar (hold down)

That's the last of it. Hopefully this tab helped. If you've got any problems feel free 
to check out my cover for visuals. Thanks, oh and one last thing… ROCK OUT!!!!
Добавлено: 23.02.2012
Другие материалы по этой песне:

Страница создана 23.02.2012
http://primanota.ru/bury-tomorrow/royal-blood-chords.htm
Привет, Гость.
Предлагаем пройти революционный курс по гитаре.
Подарок от PrimaNota.Ru, забирай!