PrimaNota.ru - самый крупный в мире бесплатный архив песенных текстов, аккордов, табулатур и нот


Bury Tomorrow - Lionheart - таба, видео

Регистрация Запомнить меня
Войти через:  Facebook Google Twitter Vk Yandex Mail.ru

Bury Tomorrow - Lionheart - таба, видео

Печатать
Просмотров: 131
Great new song by bury tomorrow!! thought I'd tab it!

Tuning: Drop B (B F# B E G# C#)

Intro:

Guitar 1:                                 x8
C#|------------15----------------------|
G#|--------17----17--------------------|
E |----14----------14------------------|
B |--15--15--15------------------------|
F#|------------------------------------|
B |------------------------------------|

Guitar 2:
C#|------------------------------------------------------------|
G#|------------------------------------------------------------|
E |------------------------------------------------------------|
B |------------------------------------------------------------|
F#|-0-0-0------0-0-0------0-0-0--------------------------------|
B |-0-0-0-0000-0-0-0-0000-0-0-0-0000-012~-8-7-3~---------------|
    . . . .... . . . .... . . . ....
C#|------------------------------------------------------------|
G#|------------------------------------------------------------|
E |------------------------------------------------------------|
B |------------------------------------------------------------|
F#|-0-0-0------0-0-0------0-0-0--------------------------------|
B |-0-0-0-0000-0-0-0-0000-0-0-0-0000-015~-12-10-7~-------------|
  . . . .... . . . .... . . . ....

Verse 1:

Guitar 1:                                 x8
C#|------------15----------------------|
G#|--------17----17--------------------|
E |----14----------14------------------|
B |--15--15--15------------------------|
F#|------------------------------------|
B |------------------------------------|

Guitar 2:                                  x2                            
C#|-----------------------------------------------|
G#|-----------------------------------------------|
E |-----------------------------------------------|
B |--333333-777777-121212121212-888888------------|
F#|--555555-333333-8-8-8-8-8-8--555555------------|
B |--000000-333333-8-8-8-8-8-8--555555------------|

Verse 2:

Both Guitars                                 
C#|--------------------------------------------------------------------------------------|
G#|--------------------------------------------------------------------------------------|
E |--------------------------------------------------------------------------------------|
B |--------------------------------------------------------------------------------------|
F#|--------------------------------------------------------------------------------------|
B |--0-10-12-1312~-0-00-0-00-0-10-12-1312-05h8-5h8~-0-10-12-1312~-0-00-0-00-0------------|

C#|--------------------------------------------------------------------------------------|
G#|--------------------------------------------------------------------------------------|
E |--------------------------------------------------------------------------------------|
B |--------------------------------------------------------------------------------------|
F#|--------------------------------------------------------------------------------------|
B |--0-10-12-13/16-0-10-12-13-0-00-0-10-12-1312~-0-00-0-00-0-10-12-1312-05h8-5h8~--------|

C#|-----------------------------------------------------------------------------------------|
G#|-----------------------------------------------------------------------------------------|
E |-----------------------------------------------------------------------------------------|
B |-----------------------------------------------------------------------------------------|
F#|-----------------------------------------------------------------------------------------|
B |0-10-12-1312~-0-00-0-00-0-10-12-1312--0-10-12-13/16-121212-0-0-131313-05h8-5h8~-03h7-3h7~|



Chorus:

Guitar 1:                                  x2
C#|-------------------------------------------------|
G#|-------------------------------------------------|
E |-------------------------------------------------|
B |-0~-2-3~-7-8~-5~-0-------------------------------|
F#|-0~-2-3~-7-8~-5~-0-------------------------------|
B |-0~-2-3~-7-8~-5~-0-------------------------------|

Guitar 2:                                  x2
C#|-----------------------------------------------------------------------8888----------|
G#|-1010101010101010-6666-1010-66-----------1010101010101010-6666-1010-66------10101010-|
E |-------------------------------9999-7777---------------------------------------------|
B |-------------------------------------------------------------------------------------|
F#|-------------------------------------------------------------------------------------|
B |-------------------------------------------------------------------------------------|

C#|-----------------------------------------------------------------------8888-10101010-|
G#|-1010101010101010-6666-1010-66-----------1010101010101010-6666-1010-66---------------|
E |-------------------------------9999-7777---------------------------------------------|
B |-------------------------------------------------------------------------------------|
F#|-------------------------------------------------------------------------------------|
B |-------------------------------------------------------------------------------------|
(all Guitar 2 plays is tremolo picked)



Breakdown 1:

Both Guitars: x2
C#|------------------------------------------------------------|
G#|------------------------------------------------------------|
E |------------------------------------------------------------|
B |------------------------------------------------------------|
F#|-00-00-00---00-00-00--0--00-0---0---------------------------|
B |-00-00-00---00-00-00--0--00-00~-00~-------------------------|
    .. .. ..   .. .. ..  .  .. .   .

Breakdown 2:

Guitar 1:
C#|------------------------------------------------------------|
G#|------------------------------------------------------------|
E |------------------------------------------------------------|
B |------------------------------------------------------------|
F#|------------------------------------------------------------|
B |-0-10-121312~-5br-1br~--------------------------------------|

Guitar 2 break

Both Guitars: x2
C#|------------------------------------------------------------|
G#|------------------------------------------------------------|
E |------------------------------------------------------------|
B |---------------------------------------------------(3*)-----|
F#|------------------------------------------------------------|
B |-0-10-121312~-5br-1br~--0-10-121312~-0-12~-0-0-19-----------|

(Only play the (3*) pinch harmonic the 2nd time round)


Interlude:

Guitar 1: x2
C#|------------------------------------------------------------|
G#|------------------------------------------------------------|
E |------------------------------------------------------------|
B |-0~--10~-7-8~--3~--7~---------------------------------------|
F#|-0~--10~-7-8~--3~--7~---------------------------------------|
B |-0~--10~-7-8~--3~--7~---------------------------------------|

Guitar 2: (This part is tapping) x4
C#|----------------------------------------------------------------------------------------------|
G#|----------------------------------------------------------------------------------------------|
E |7-19-7-19-7-17/19-7-22-7-19-7-17/19-7-17-7-15-7-15-7-14/15-7-15-7-14-7-12/14-12-7-10-7-10-9/10|
B |----------------------------------------------------------------------------------------------|
F#|----------------------------------------------------------------------------------------------|
B |----------------------------------------------------------------------------------------------|

C#|------------------------------------------------------------|
G#|---------------------------------8101110~-------------------|
E |-7-12-7-10-7-9/10-7-9~-------7910---------------------------|
B |--------------------------578-------------------------------|
F#|-----------------------578----------------------------------|
B |------------------------------------------------------------|
                         |-------------------|
                           (Fast Picking)

Guitar 1: (Plays a rhythm underneath guitar 2 for the 3rd and 4th time round) x2
C#|------------------------------------------------------------|
G#|------------------------------------------------------------|
E |------------------------------------------------------------|
B |------------------------------------------------------------|
F#|--0000-0-0-0---0000-00-0-0-0-00-----------------------------|
B |--0000-0-0-0---0000-00-0-0-0-00-0~--------------------------|
     .... . . .   .... .. . . . .. 
(not to sure on the rhythm but its close enough)



Guitar 1:
C#|------------------------------------------------------------|
G#|------------------------------------------------------------|
E |------------------------------------------------------------|
B |------------------------------------------------------------|
F#|--0-0-0-0-0-0-0-0-0-0-0-0-0-0-0-0-0-0-----------------------|
B |--0-0-0-0-0-0-0-0-0-0-0-0-0-0-0-0-0-0-----------------------|
     . . . . . . . . . . . . . . . . . .
(slowly builds up)


Guitar 2:                                  x2
C#|-----------------------------------------------------------------------8888----------|
G#|-1010101010101010-6666-1010-66-----------1010101010101010-6666-1010-66------10101010-|
E |-------------------------------9999-7777---------------------------------------------|
B |-------------------------------------------------------------------------------------|
F#|-------------------------------------------------------------------------------------|
B |-------------------------------------------------------------------------------------|

C#|-------------------------------------------------------------------------------------|
G#|-1010101010101010-6666-1010-66-----------1010101010101010-6666-1010-66---------------|
E |-------------------------------9999-7777---------------------------------------------|
B |-------------------------------------------------------------------------------------|
F#|-------------------------------------------------------------------------------------|
B |-------------------------------------------------------------------------------------|
(all Guitar 2 plays is tremolo picked)


Chorus:

Guitar 1:                                  x2
C#|-------------------------------------------------|
G#|-------------------------------------------------|
E |-------------------------------------------------|
B |-0~-2-3~-7-8~-5~-0-------------------------------|
F#|-0~-2-3~-7-8~-5~-0-------------------------------|
B |-0~-2-3~-7-8~-5~-0-------------------------------|

Guitar 2:                                  x2
C#|-----------------------------------------------------------------------8888----------|
G#|-1010101010101010-6666-1010-66-----------1010101010101010-6666-1010-66------10101010-|
E |-------------------------------9999-7777---------------------------------------------|
B |-------------------------------------------------------------------------------------|
F#|-------------------------------------------------------------------------------------|
B |-------------------------------------------------------------------------------------|

C#|-----------------------------------------------------------------------8888-10101010-|
G#|-1010101010101010-6666-1010-66-----------1010101010101010-6666-1010-66---------------|
E |-------------------------------9999-7777---------------------------------------------|
B |-------------------------------------------------------------------------------------|
F#|-------------------------------------------------------------------------------------|
B |-------------------------------------------------------------------------------------|
(all Guitar 2 plays is tremolo picked)


Outro:

Both Guitars:
C#|-------------------------------------------------|
G#|-------------------------------------------------|
E |-------------------------------------------------|
B |-12~-10-8~-10-3~-7~-0----------------------------|
F#|-12~-10-8~-10-3~-7~-0----------------------------|
B |-12~-10-8~-10-3~-7~-0----------------------------|

Thats it!! Should be pretty accurate although the tapping part could have a few little mistakes!! 
Добавлено: 28.06.2012
Другие материалы по этой песне:

Страница создана 31.03.2012
http://primanota.ru/bury-tomorrow/lionheart-chords.htm
Привет, Гость.
Предлагаем пройти революционный курс по гитаре.
Подарок от PrimaNota.Ru, забирай!