PrimaNota.ru - самый крупный в мире бесплатный архив песенных текстов, аккордов, табулатур и нот


Bury Tomorrow - Abdication Of Power - таба, видео

Регистрация Запомнить меня
Войти через:  Facebook Google Twitter Vk Yandex Mail.ru

Bury Tomorrow - Abdication Of Power - таба, видео

Печатать
Просмотров: 110
BURY TOMORROW

ABDICATION OF POWER

C-G-C-F-A-D

TABBED BY andherembrace








--------------------------------------------------------------------------|
--------------------------------------------------------------------------|
--------------------------------------------------------------------------|
--------------------------------------------------------------------------|
0000--0000--0000--0-00--0-0000--0-00--------------------------------------|
0000--0000--0000--0-00--0-0000--0-00--0000--0000--0000--0-00--0-0000--0-00|
****  ****  ****  * **  * ****  * **  ****| ****| ****| * **| *|****| * **|

-------------------------|
-------------------------|
-------------------------|
-1---1---1---1-----------|
-0---0---0---0--4-3-1----|
-1---1---1---1--4-3-1----|
 *   *   *   *  * * *


--------------------------------------------------------------------------|
--------------------------------------------------------------------------|
--------------------------------------------------------------------------|
--------------------------------------------------------------------------|
--------------------------------------0000--0000--0000--0-00--0-0000--0-00|
0000--0000--0000--0-00--0-0000--0-00--0000--0000--0000--0-00--0-0000--0-00|
****| ****| ****| * **| *|****| * **| ****  ****  ****  * **  * ****  * **


-------------------------|
-------------------------|
-------------------------|
-1---1---1---1-----------|
-0---0---0---0--4-3-1----|
-1---1---1---1--4-3-1----|
 *   *   *   *  * * *





0:19


1
-----------------------------------------------------------------|
-----------------------------------------------------------------|
-----------------------------------------------------------------|
-----------------------------------------------------------------|
-5---8-5-------5---5-------8-----5---8-5-------5-----5-----4-----|
---7-----0-0-0---7---8-7-5---0-0---7-----0-0-0---7-0---3-0---2-0-|
         * * *               * *         * * *     *     *      
2
-----------------------------------------------------------------|
-----------------------------------------------------------------|
-----------------------------------------------------------------|
-0---------------------------------------------------------------|
-0---------------------------------------------------5-----4-----|
-0-------------------------------------------------0---3-0---2-0-|
                                                   *     *


1
---------------------------------------------------------------|
---------------------------------------------------------------|
---------------------------------------------------------------|
-----3---3-7-------3---3-7-3---3-----3---3-7-------------------|
-------5-------------5-------7---------5-----------------------|
-0-0---------0-0-0---------------0-0---------0-0-8-8-8-8-8-5~--|
 * *         * * *               * *         * *          
2
---------------------------------------------------------------|
---------------------------------------------------------------|
---------------------------------------------------------------|
---------------------------------------------------------------|
-0-0---------0-0-0---------------0-0----------0-0--------------|
-0-0---------0-0-0---------------0-0----------0-0-8-8-8-8-8-5~-|
 * *         * * *               * *          * * 




0:30


B
-----------------------------------------------------------------|
-----------------------------------------------------------------|
-----------------------------------------------------------------|
-----------------------------------------------------------------|
-5---8-5-------5---5-------8-----5---8-5-------5-----5-----4-----|
---7-----0-0-0---7---8-7-5---0-0---7-----0-0-0---7-0---3-0---2-0-|
         * * *               * *         * * *     *     * 

---------------------------------------------------------------|
---------------------------------------------------------------|
---------------------------------------------------------------|
-----3---3-7-------3---3-7-3---3-----3---3-7-------------------|
-------5-------------5-------7---------5-----------------------|
-0-0---------0-0-0---------------0-0---------0-0-8-8-8-8-8-5~--|
 * *         * * *               * *         * *        



-----------------------------------------------------------------|
-----------------------------------------------------------------|
-----------------------------------------------------------------|
-----------------------------------------------------------------|
-5---8-5-------5---5-------8-----5---8-5-------5-----5-----4-----|
---7-----0-0-0---7---8-7-5---0-0---7-----0-0-0---7-0---3-0---2-0-|
         * * *               * *         * * *     *     * 

-------------------------------------------------------------|
-------------------------------------------------------------|
-------------------------------------------------------------|
----3---3-7-------3---3-7-3---3-----3---3-7------------------|
------5-------------5-------7---------5----------------------|
0-0---------0-0-0---------------0-0---------0-0-8-8-8-8-8-5~-|
* *         * * *               * *         * * 

---------------------|
---------------------|
---------------------|
---------------------|
---------------------|
-10-10-10-10-10-7~---|






0:52


L HARMONY
-----------------------------------------------|
-----------------------------------------------|
----17-------17-------------19-17-15-----------|
15-----15-15----15-15-17-19----------19-17-15--|
-----------------------------------------------|
-----------------------------------------------|
R HARMONY
-----------------------------------------------|
-----------------------------------------------|
----14-------14-------------15-14-12-----------|
12-----12-12----12-12-14-15----------15-14-12--|
-----------------------------------------------|
-----------------------------------------------|
RYTHM
-----------------------------------------------|
-----------------------------------------------|
-----------------------------------------------|
-----------------------------------------------|
-0----0--0----0--0--0----0----0--0----0--0--0--|
-0----0--0----0--0--0----0----0--0----0--0--0--|



L HARMONY
----------------------------------------------------|
----------------------------------------------------|
----17-------17-------------19-17-19-17-15----------|
15-----15-15----15-15-17-19----------------19-------|
----------------------------------------------------|
----------------------------------------------------|
R HARMONY
----------------------------------------------------|
----------------------------------------------------|
----14-------14-------------15-14-15-14-12----------|
12-----12-12----12-12-14-15----------------15-------|
----------------------------------------------------|
----------------------------------------------------|
RYTHM
---------------------------------------------------------|
---------------------------------------------------------|
---------------------------------------------------------|
---------------------------------------------------------|
10----10--10----10--10--10----10----10--10----10--10--10-|
10----10--10----10--10--10----10----10--10----10--10--10-|



L HARMONY
-----------------------------------------------|
-----------------------------------------------|
----17-------17-------------19-17-15-----------|
15-----15-15----15-15-17-19----------19-17-15--|
-----------------------------------------------|
-----------------------------------------------|
R HARMONY
-----------------------------------------------|
-----------------------------------------------|
----14-------14-------------15-14-12-----------|
12-----12-12----12-12-14-15----------15-14-12--|
-----------------------------------------------|
-----------------------------------------------|
RYTHM
-----------------------------------------------|
-----------------------------------------------|
-----------------------------------------------|
-----------------------------------------------|
-8----8--8----8--8--8----8----8--8----8--8--8--|
-8----8--8----8--8--8----8----8--8----8--8--8--|




L HARMONY
----------------------------------------------------|
----------------------------------------------------|
----17-------17-------------19-17-19-17-15----------|
15-----15-15----15-15-17-19----------------19-15----|
----------------------------------------------------|
----------------------------------------------------|
R HARMONY
----------------------------------------------------|
----------------------------------------------------|
----14-------14-------------15-14-15-14-12----------|
12-----12-12----12-12-14-15----------------15-12----|
----------------------------------------------------|
----------------------------------------------------|
RYTHM
----------------------------------------------------|
----------------------------------------------------|
----------------------------------------------------|
----------------------------------------------------|
----------------------12--8-12-12-12-12-12-12-12----|
-7---7--7--7--7--7--7--8--8--8--8--8--8--8--8--8----|




1:03


L HARMONY
-----------------------------------------------|
-----------------------------------------------|
----17-------17-------------19-17-15-----------|
15-----15-15----15-15-17-19----------19-17-15--|
-----------------------------------------------|
-----------------------------------------------|
R HARMONY
-----------------------------------------------|
-----------------------------------------------|
----14-------14-------------15-14-12-----------|
12-----12-12----12-12-14-15----------15-14-12--|
-----------------------------------------------|
-----------------------------------------------|
RYTHM
-----------------------------------------------|
-----------------------------------------------|
-----------------------------------------------|
-----------------------------------------------|
-0----0--0----0--0--0----0----0--0----0--0--0--|
-0----0--0----0--0--0----0----0--0----0--0--0--|



L HARMONY
----------------------------------------------------|
----------------------------------------------------|
----17-------17-------------19-17-19-17-15----------|
15-----15-15----15-15-17-19----------------19-------|
----------------------------------------------------|
----------------------------------------------------|
R HARMONY
----------------------------------------------------|
----------------------------------------------------|
----14-------14-------------15-14-15-14-12----------|
12-----12-12----12-12-14-15----------------15-------|
----------------------------------------------------|
----------------------------------------------------|
RYTHM
---------------------------------------------------------|
---------------------------------------------------------|
---------------------------------------------------------|
---------------------------------------------------------|
10----10--10----10--10--10----10----10--10----10--10--10-|
10----10--10----10--10--10----10----10--10----10--10--10-|



L HARMONY
-----------------------------------------------|
-----------------------------------------------|
----17-------17-------------19-17-15-----------|
15-----15-15----15-15-17-19----------19-17-15--|
-----------------------------------------------|
-----------------------------------------------|
R HARMONY
-----------------------------------------------|
-----------------------------------------------|
----14-------14-------------15-14-12-----------|
12-----12-12----12-12-14-15----------15-14-12--|
-----------------------------------------------|
-----------------------------------------------|
RYTHM
-----------------------------------------------|
-----------------------------------------------|
-----------------------------------------------|
-----------------------------------------------|
-8----8--8----8--8--8----8----8--8----8--8--8--|
-8----8--8----8--8--8----8----8--8----8--8--8--|




L HARMONY
----------------------------------------------------|
----------------------------------------------------|
----17-------17-------------19-17-19-17-15----------|
15-----15-15----15-15-17-19----------------19-15----|
----------------------------------------------------|
----------------------------------------------------|
R HARMONY
----------------------------------------------------|
----------------------------------------------------|
----14-------14-------------15-14-15-14-12----------|
12-----12-12----12-12-14-15----------------15-12----|
----------------------------------------------------|
----------------------------------------------------|
RYTHM
----------------------------------------------------|
----------------------------------------------------|
----------------------------------------------------|
----------------------------------------------------|
----------------------12--8-12-12-12-12-12-12-12----|
-7---7--7--7--7--7--7--8--8--8--8--8--8--8--8--8----|





1:14


B
-----------------------------------------------------------------|
-----------------------------------------------------------------|
-----------------------------------------------------------------|
-----------------------------------------------------------------|
-5---8-5-------5---5-------8-----5---8-5-------5-----5-----4-----|
---7-----0-0-0---7---8-7-5---0-0---7-----0-0-0---7-0---3-0---2-0-|
         * * *               * *         * * *     *     * 

---------------------------------------------------------------|
---------------------------------------------------------------|
---------------------------------------------------------------|
-----3---3-7-------3---3-7-3---3-----3---3-7-------------------|
-------5-------------5-------7---------5-----------------------|
-0-0---------0-0-0---------------0-0---------0-0-8-8-8-8-8-5~--|
 * *         * * *               * *         * *        



1:25

1
-----------------------------------------------------------------|
-----------------------------------------------------------------|
-----------------------------------------------------------------|
-----------------------------------------------------------------|
-5---8-5-------5---5-------8-----5---8-5-------5-----5-----4-----|
---7-----0-0-0---7---8-7-5---0-0---7-----0-0-0---7-0---3-0---2-0-|
         * * *               * *         * * *     *     *      
2
-----------------------------------------------------------------|
-----------------------------------------------------------------|
-----------------------------------------------------------------|
-----------------------------------------------------------------|
---------0-0-0---------------0-0---------0-0-0-------5-----4-----|
---------0-0-0---------------0-0---------0-0-0-----0---3-0---2-0-|
         * * *               * *         * * *     *     *


1
---------------------------------------------------------------|
---------------------------------------------------------------|
----------------------------------------------------------PH---|
-----3---3-7-------3---3-7-3---3-----3---3-7---------------8~~-|
-------5-------------5-------7---------5-----------------------|
-0-0---------0-0-0---------------0-0---------0-0-8-8-8-8-8-----|
 * *         * * *               * *         * *          
2
---------------------------------------------------------------|
---------------------------------------------------------------|
----------------------------------------------------------PH---|
-----------------------------------------------------------8~~-|
-0-0---------0-0-0---------------0-0---------0-0---------------|
-0-0---------0-0-0---------------0-0---------0-0-8-8-8-8-8-----|
 * *         * * *               * *         * * 



1:35


1
-----------------------------------------------------------------|
-----------------------------------------------------------------|
-----------------------------------------------------------------|
-----------------------------------------------------------------|
-5---8-5-------5---5-------8-----5---8-5-------5-----5-----4-----|
---7-----0-0-0---7---8-7-5---0-0---7-----0-0-0---7-0---3-0---2-0-|
         * * *               * *         * * *     *     * 
2
------------------------------------------------------------------------|
------------------------------------------------------------------------|
------------------------------------------------------------------------|
------------------------------------------------------------------------|
8----12-8-------8----8---------12-----8----12-8-------8-----8-----7-----|
--12------0-0-0---12---12-10-8----0-0---12------0-0-0---7-0---6-0---5-3-|
          * * *                   * *           * * *     *     *


1
---------------------------------------------------------------|
---------------------------------------------------------------|
---------------------------------------------------------------|
-----3---3-7-------3---3-7-3---3-----3---3-7-------------------|
-------5-------------5-------7---------5-----------------------|
-0-0---------0-0-0---------------0-0---------0-0-8-8-8-8-8-5~--|
 * *         * * *               * *         * *     
2
-------------------------------------------------------------------|
-------------------------------------------------------------------|
-------------------------------------------------------------------|
-----7---7-10-------7---7-10-7----7-----7---7-10-------------------|
-------8--------------8--------10---------8------------------------|
-0-0----------0-0-0-----------------0-0----------0-0-8-8-8-8-8-5~--|
 * *          * * *                 * *          * *

B
---------------------|
---------------------|
---------------------|
---------------------|
---------------------|
-10-10-10-10-10-7~---|






1:47


L HARMONY
-----------------------------------------------|
-----------------------------------------------|
----17-------17-------------19-17-15-----------|
15-----15-15----15-15-17-19----------19-17-15--|
-----------------------------------------------|
-----------------------------------------------|
R HARMONY
-----------------------------------------------|
-----------------------------------------------|
----14-------14-------------15-14-12-----------|
12-----12-12----12-12-14-15----------15-14-12--|
-----------------------------------------------|
-----------------------------------------------|
RYTHM
-----------------------------------------------|
-----------------------------------------------|
-----------------------------------------------|
-----------------------------------------------|
-0----0--0----0--0--0----0----0--0----0--0--0--|
-0----0--0----0--0--0----0----0--0----0--0--0--|



L HARMONY
----------------------------------------------------|
----------------------------------------------------|
----17-------17-------------19-17-19-17-15----------|
15-----15-15----15-15-17-19----------------19-------|
----------------------------------------------------|
----------------------------------------------------|
R HARMONY
----------------------------------------------------|
----------------------------------------------------|
----14-------14-------------15-14-15-14-12----------|
12-----12-12----12-12-14-15----------------15-------|
----------------------------------------------------|
----------------------------------------------------|
RYTHM
---------------------------------------------------------|
---------------------------------------------------------|
---------------------------------------------------------|
---------------------------------------------------------|
10----10--10----10--10--10----10----10--10----10--10--10-|
10----10--10----10--10--10----10----10--10----10--10--10-|



L HARMONY
-----------------------------------------------|
-----------------------------------------------|
----17-------17-------------19-17-15-----------|
15-----15-15----15-15-17-19----------19-17-15--|
-----------------------------------------------|
-----------------------------------------------|
R HARMONY
-----------------------------------------------|
-----------------------------------------------|
----14-------14-------------15-14-12-----------|
12-----12-12----12-12-14-15----------15-14-12--|
-----------------------------------------------|
-----------------------------------------------|
RYTHM
-----------------------------------------------|
-----------------------------------------------|
-----------------------------------------------|
-----------------------------------------------|
-8----8--8----8--8--8----8----8--8----8--8--8--|
-8----8--8----8--8--8----8----8--8----8--8--8--|




L HARMONY
----------------------------------------------------|
----------------------------------------------------|
----17-------17-------------19-17-19-17-15----------|
15-----15-15----15-15-17-19----------------19-15----|
----------------------------------------------------|
----------------------------------------------------|
R HARMONY
----------------------------------------------------|
----------------------------------------------------|
----14-------14-------------15-14-15-14-12----------|
12-----12-12----12-12-14-15----------------15-12----|
----------------------------------------------------|
----------------------------------------------------|
RYTHM
----------------------------------------------------|
----------------------------------------------------|
----------------------------------------------------|
----------------------------------------------------|
----------------------12--8-12-12-12-12-12-12-12----|
-7---7--7--7--7--7--7--8--8--8--8--8--8--8--8--8----|




L HARMONY
-----------------------------------------------|
-----------------------------------------------|
----17-------17-------------19-17-15-----------|
15-----15-15----15-15-17-19----------19-17-15--|
-----------------------------------------------|
-----------------------------------------------|
R HARMONY
-----------------------------------------------|
-----------------------------------------------|
----14-------14-------------15-14-12-----------|
12-----12-12----12-12-14-15----------15-14-12--|
-----------------------------------------------|
-----------------------------------------------|
RYTHM
-----------------------------------------------|
-----------------------------------------------|
-----------------------------------------------|
-----------------------------------------------|
-0----0--0----0--0--0----0----0--0----0--0--0--|
-0----0--0----0--0--0----0----0--0----0--0--0--|



L HARMONY
----------------------------------------------------|
----------------------------------------------------|
----17-------17-------------19-17-19-17-15----------|
15-----15-15----15-15-17-19----------------19-------|
----------------------------------------------------|
----------------------------------------------------|
R HARMONY
----------------------------------------------------|
----------------------------------------------------|
----14-------14-------------15-14-15-14-12----------|
12-----12-12----12-12-14-15----------------15-------|
----------------------------------------------------|
----------------------------------------------------|
RYTHM
---------------------------------------------------------|
---------------------------------------------------------|
---------------------------------------------------------|
---------------------------------------------------------|
10----10--10----10--10--10----10----10--10----10--10--10-|
10----10--10----10--10--10----10----10--10----10--10--10-|



L HARMONY
-----------------------------------------------|
-----------------------------------------------|
----17-------17-------------19-17-15-----------|
15-----15-15----15-15-17-19----------19-17-15--|
-----------------------------------------------|
-----------------------------------------------|
R HARMONY
-----------------------------------------------|
-----------------------------------------------|
----14-------14-------------15-14-12-----------|
12-----12-12----12-12-14-15----------15-14-12--|
-----------------------------------------------|
-----------------------------------------------|
RYTHM
-----------------------------------------------|
-----------------------------------------------|
-----------------------------------------------|
-----------------------------------------------|
-8----8--8----8--8--8----8----8--8----8--8--8--|
-8----8--8----8--8--8----8----8--8----8--8--8--|




L HARMONY
----------------------------------------------------|
----------------------------------------------------|
----17-------17-------------19-17-19-17-15----------|
15-----15-15----15-15-17-19----------------19-15----|
----------------------------------------------------|
----------------------------------------------------|
R HARMONY
----------------------------------------------------|
----------------------------------------------------|
----14-------14-------------15-14-15-14-12----------|
12-----12-12----12-12-14-15----------------15-12----|
----------------------------------------------------|
----------------------------------------------------|
RYTHM
----------------------------------------------------|
----------------------------------------------------|
----------------------------------------------------|
----------------------------------------------------|
----------------------12--8-12-12-12-12-12-12-12----|
-7---7--7--7--7--7--7--8--8--8--8--8--8--8--8--8----|







2:09


------------------------------------------------|
------------------------------------------------|
------------------------------------------------|
10--10----10--10---------10--10----10--10-------|
-8---8-----8---8----------8---8-----8---8-------|
-8---8--8--8---8----------8---8--8--8---8-------|
        *                        *

-------------------------------------------------------|
-------------------------------------------------------|
-------------------------------14-----------14---------|
-12-14-15------15---15---------15---15------15---15----|
-12-12-12------12---12---------12---12------12---12----|
-12-12-12--12--12---12---------12---12--12--12---12----|
            *                            *





1 ALL NOTES TREMELO PICKED +REVERB/DELAY
-13----12---------------13----12-/-17----------|
------------13---------------------------------|
-----------------------------------------------|
-----------------------------------------------|
-----------------------------------------------|
-----------------------------------------------|
2
------------------------------------------------|
------------------------------------------------|
------------------------------------------------|
10--10----10--10---------10--10----10--10-------|
-8---8-----8---8----------8---8-----8---8-------|
-8---8--8--8---8----------8---8--8--8---8-------|
        *                        *



1 ALL NOTES TREMELO PICKED +REVERB/DELAY
-13----12----------------------------------------------|
------------13----------------\8---10------------------|
----------------------------------------9----7---------|
-------------------------------------------------------|
-------------------------------------------------------|
-------------------------------------------------------|
2
-------------------------------------------------------|
-------------------------------------------------------|
-------------------------------14-----------14---------|
-12-14-15------15---15---------15---15------15---15----|
-12-12-12------12---12---------12---12------12---12----|
-12-12-12--12--12---12---------12---12--12--12---12----|
            *                            *



1+REVERB/DELAY
------------------------------------------------|
------------13--------------------10------------|
-10----------------------7----------------------|
------------------------------------------------|
------------------------------------------------|
------------------------------------------------|
2
------------------------------------------------|
------------------------------------------------|
------------------------------------------------|
10--10----10--10---------10--10----10--10-------|
-8---8-----8---8----------8---8-----8---8-------|
-8---8--8--8---8----------8---8--8--8---8-------|
        *                        *


1
------------------------------------------------------|
------------------------------------------------------|
--------------7-------------------------10------------|
-10----------------------------14----------------14---|
------------------------------------------------------|
------------------------------------------------------|
2
-------------------------------------------------------|
-------------------------------------------------------|
-------------------------------14-----------14---------|
-12-14-15------15---15---------15---15------15---15----|
-12-12-12------12---12---------12---12------12---12----|
-12-12-12--12--12---12---------12---12--12--12---12----|
            *                            *



1+REVERB/DELAY
------------------------------------------------|
------------13--------------------10------------|
-10----------------------7----------------------|
------------------------------------------------|
------------------------------------------------|
------------------------------------------------|
2
------------------------------------------------|
------------------------------------------------|
------------------------------------------------|
10--10----10--10---------10--10----10--10-------|
-8---8-----8---8----------8---8-----8---8-------|
-8---8--8--8---8----------8---8--8--8---8-------|
        *                        *


1
------------------------------------------------------|
------------------------------------------------------|
--------------7-------------------------10------------|
-10----------------------------14----------------14---|
------------------------------------------------------|
------------------------------------------------------|
2
-------------------------------------------------------|
-------------------------------------------------------|
-------------------------------14-----------14---------|
-12-14-15------15---15---------15---15------15---15----|
-12-12-12------12---12---------12---12------12---12----|
-12-12-12--12--12---12---------12---12--12--12---12----|
            *                            *





2:51


1

-15-13----13------------------------------------------------------------|
-------17----17-15-17-15-13-15-13----13---------------------------------|
----------------------------------15----15-14-15-14-12-14-12----12------|
-------------------------------------------------------------15----15-14|
------------------------------------------------------------------------|
------------------------------------------------------------------------|
2
------------------------------------------------------------------------|
------------------------------------------------------------------------|
------------------------------------------------------------------------|
------------------------------------------------------------------------|
-0-----------------------------------3----------------------------------|
-0-----------------------------------3----------------------------------|


1
------------------------------------------------------------|
------------------------------------------------------------|
------------------------------------------------------------|
-15-14-12-14-12----12---------------------------------------|
----------------15----15-13-15-13-12-13-12----12------------|
-------------------------------------------17----17-15-12~--|
2
------------------------------------------------------------|
------------------------------------------------------------|
------------------------------------------------------------|
------------------------------------------------------------|
-8------------------------------------5---------------------|
-8------------------------------------5---------------------|




2:57


---------------------------------------------------------------------|
---------------------------------------------------------------------|
---------------------------------------------------------------------|
---------------------------------------------------------------------|
---------------------------------------------------------------------|
-0-00000000000000-3-33333333333333-8-88888888888888-5-55555555555555-|





3:02


                         BENDS 
---------------------------V---------------------------------------------|
-------------------------------------------------------------------------|
-------------------------------------------------------------------------|
-----------------------------------10-10-----10-10-----------------------|
---5-5-----5-5-----5---7---7~~-------------------------8---10---10-12----|
-0-----0-0-----3-3---3---3------8--------8-8-------8-8---8----8-------10-|
 *     * *     * *   *   *      *        * *       * *   *    *

------------------------------------------------------------------------|
------------------------------------------------------------------------|
------------------------------------------------------------------------|
-----------------------------------10-10-----10-10---------10-----------|
---5-5-----5-5-----5---7---7~~-------------------------8-------12--8----|
-0-----0-0-----3-3---3---3------8--------8-8-------8-8---8-----------10-|
 *     * *     * *   *   *      *        * *       *     



3:12


1
-------------------------------------------------------------------------|
-------------------------------------------------------------------------|
-------------------------------------------------------------------------|
-----------------------------------10-10-----10-10-----------------------|
---5-5-----5-5-----5---7---7~~-------------------------8---10---10-12----|
-0-----0-0-----3-3---3---3------8--------8-8-------8-8---8----8-------10-|
 *     * *     * *   *   *      *        * *       * *   *    *

2
--------------------------------------------------------------------|
--------------------------------------------------------------------|
--------------------------------------------------------------------|
---3-3-----3-3-----3---5---5~~-----7-7------7-7---------------------|
-----------------------------------------------------5---7---7-8-7--|
-0-----0-0-----3-3---3---3------8-------8-8-----8-8----8---8--------|
 *     * *     * *   *   *      *       * *     * *    *   *



1
------------------------------------------------------------------------|
------------------------------------------------------------------------|
------------------------------------------------------------------------|
-----------------------------------10-10-----10-10---------10-----------|
---5-5-----5-5-----5---7---7~~-------------------------8-------12--8----|
-0-----0-0-----3-3---3---3------8--------8-8-------8-8---8-----------10-|
 *     * *     * *   *   *      *        * *       *     
2
2
--------------------------------------------------------------|
--------------------------------------------------------------|
--------------------------------------------------------------|
---3-3-----3-3-----3---5---5~~-----7-7------7-7-----7---------|
------------------------------------------------------8-------|
-0-----0-0-----3-3---3---3------8-------8-8-----8-8-----10-7--|
 *     * *     * *   *   *      *       * *     *     




3:23

SOLO

----------------------10-12-13-12-10----------------------------------------|
--------------8-10-11----------------13-11-10-11-10-------------------------|
-------7-9-10---------------------------------------12-10--10---------------|
0-7-8----------------------------------------------------14--14-/15-14------|
----------------------------------------------------------------------15-10~|
----------------------------------------------------------------------------|
2
---------------------------------------------------------------------|
---------------------------------------------------------------------|
---------------------------------------------------------------------|
---------------------------------------------------------------------|
---------------------------------------------------------------------|
-0-00000000000000-3-33333333333333-8-88888888888888-5-55555555555555-|




1                           __                               __
-------------------__------/  \---------------------__------/  \---|
-----------__-----/  \---10-11-13-----------__-----/  \---10-11-13-|
---__-----/  \---9-10-12------------__-----/  \---9-10-12----------|
--/  \---8-10-12-------------------/  \---8-10-12------------------|
-8-10-12--------------------------8-10-12--------------------------|
-------------------------------------------------------------------|
cont.
-----^---17/18\17------------18/20\18-----------^---20/22\20------^---17/22|
---15-18---------18-15---15----------18-15----15-18-------------15-18------|
---------------------------------------------------------------------------|
---------------------------------------------------------------------------|
17--------------------18------------------19-----------------17------------|
---------------------------------------------------------------------------|
2
---------------------------------------------------------------------|
---------------------------------------------------------------------|
---------------------------------------------------------------------|
---------------------------------------------------------------------|
---------------------------------------------------------------------|
-0-00000000000000-3-33333333333333-8-88888888888888-5-55555555555555-|





3:34


L HARMONY
-----------------------------------------------|
-----------------------------------------------|
----17-------17-------------19-17-15-----------|
15-----15-15----15-15-17-19----------19-17-15--|
-----------------------------------------------|
-----------------------------------------------|
R HARMONY
-----------------------------------------------|
-----------------------------------------------|
----14-------14-------------15-14-12-----------|
12-----12-12----12-12-14-15----------15-14-12--|
-----------------------------------------------|
-----------------------------------------------|
RYTHM
-----------------------------------------------|
-----------------------------------------------|
-----------------------------------------------|
-----------------------------------------------|
-0----0--0----0--0--0----0----0--0----0--0--0--|
-0----0--0----0--0--0----0----0--0----0--0--0--|



L HARMONY
----------------------------------------------------|
----------------------------------------------------|
----17-------17-------------19-17-19-17-15----------|
15-----15-15----15-15-17-19----------------19-------|
----------------------------------------------------|
----------------------------------------------------|
R HARMONY
----------------------------------------------------|
----------------------------------------------------|
----14-------14-------------15-14-15-14-12----------|
12-----12-12----12-12-14-15----------------15-------|
----------------------------------------------------|
----------------------------------------------------|
RYTHM
---------------------------------------------------------|
---------------------------------------------------------|
---------------------------------------------------------|
---------------------------------------------------------|
10----10--10----10--10--10----10----10--10----10--10--10-|
10----10--10----10--10--10----10----10--10----10--10--10-|



L HARMONY
-----------------------------------------------|
-----------------------------------------------|
----17-------17-------------19-17-15-----------|
15-----15-15----15-15-17-19----------19-17-15--|
-----------------------------------------------|
-----------------------------------------------|
R HARMONY
-----------------------------------------------|
-----------------------------------------------|
----14-------14-------------15-14-12-----------|
12-----12-12----12-12-14-15----------15-14-12--|
-----------------------------------------------|
-----------------------------------------------|
RYTHM
-----------------------------------------------|
-----------------------------------------------|
-----------------------------------------------|
-----------------------------------------------|
-8----8--8----8--8--8----8----8--8----8--8--8--|
-8----8--8----8--8--8----8----8--8----8--8--8--|




L HARMONY
----------------------------------------------------|
----------------------------------------------------|
----17-------17-------------19-17-19-17-15----------|
15-----15-15----15-15-17-19----------------19-15----|
----------------------------------------------------|
----------------------------------------------------|
R HARMONY
----------------------------------------------------|
----------------------------------------------------|
----14-------14-------------15-14-15-14-12----------|
12-----12-12----12-12-14-15----------------15-12----|
----------------------------------------------------|
----------------------------------------------------|
RYTHM
----------------------------------------------------|
----------------------------------------------------|
----------------------------------------------------|
----------------------------------------------------|
----------------------12--8-12-12-12-12-12-12-12----|
-7---7--7--7--7--7--7--8--8--8--8--8--8--8--8--8----|




L HARMONY
-----------------------------------------------|
-----------------------------------------------|
----17-------17-------------19-17-15-----------|
15-----15-15----15-15-17-19----------19-17-15--|
-----------------------------------------------|
-----------------------------------------------|
R HARMONY
-----------------------------------------------|
-----------------------------------------------|
----14-------14-------------15-14-12-----------|
12-----12-12----12-12-14-15----------15-14-12--|
-----------------------------------------------|
-----------------------------------------------|
RYTHM
-----------------------------------------------|
-----------------------------------------------|
-----------------------------------------------|
-----------------------------------------------|
-0----0--0----0--0--0----0----0--0----0--0--0--|
-0----0--0----0--0--0----0----0--0----0--0--0--|



L HARMONY
----------------------------------------------------|
----------------------------------------------------|
----17-------17-------------19-17-19-17-15----------|
15-----15-15----15-15-17-19----------------19-------|
----------------------------------------------------|
----------------------------------------------------|
R HARMONY
----------------------------------------------------|
----------------------------------------------------|
----14-------14-------------15-14-15-14-12----------|
12-----12-12----12-12-14-15----------------15-------|
----------------------------------------------------|
----------------------------------------------------|
RYTHM
---------------------------------------------------------|
---------------------------------------------------------|
---------------------------------------------------------|
---------------------------------------------------------|
10----10--10----10--10--10----10----10--10----10--10--10-|
10----10--10----10--10--10----10----10--10----10--10--10-|



L HARMONY
-----------------------------------------------|
-----------------------------------------------|
----17-------17-------------19-17-15-----------|
15-----15-15----15-15-17-19----------19-17-15--|
-----------------------------------------------|
-----------------------------------------------|
R HARMONY
-----------------------------------------------|
-----------------------------------------------|
----14-------14-------------15-14-12-----------|
12-----12-12----12-12-14-15----------15-14-12--|
-----------------------------------------------|
-----------------------------------------------|
RYTHM
-----------------------------------------------|
-----------------------------------------------|
-----------------------------------------------|
-----------------------------------------------|
-8----8--8----8--8--8----8----8--8----8--8--8--|
-8----8--8----8--8--8----8----8--8----8--8--8--|




L HARMONY
----------------------------------------------------|
----------------------------------------------------|
----17-------17-------------19-17-19-17-15----------|
15-----15-15----15-15-17-19----------------19-15----|
----------------------------------------------------|
----------------------------------------------------|
R HARMONY
----------------------------------------------------|
----------------------------------------------------|
----14-------14-------------15-14-15-14-12----------|
12-----12-12----12-12-14-15----------------15-12----|
----------------------------------------------------|
----------------------------------------------------|
RYTHM
----------------------------------------------------|
----------------------------------------------------|
----------------------------------------------------|
----------------------------------------------------|
----------------------12--8-12-12-12-12-12-12-12----|
-7---7--7--7--7--7--7--8--8--8--8--8--8--8--8--8----|




3:56

1 + reverb/delay
-----------------------------------------------|
-----------------------------------------------|
-14--14-14-14-14-14-14-14-14-14-14-14-14-14-14-|
-----------------------------------------------|
-----------------------------------------------|
-----------------------------------------------|
L HARMONY
-----------------------------------------------|
-----------------------------------------------|
----17-------17-------------19-17-15-----------|
15-----15-15----15-15-17-19----------19-17-15--|
-----------------------------------------------|
-----------------------------------------------|
R HARMONY
-----------------------------------------------|
-----------------------------------------------|
----14-------14-------------15-14-12-----------|
12-----12-12----12-12-14-15----------15-14-12--|
-----------------------------------------------|
-----------------------------------------------|
RYTHM
-----------------------------------------------|
-----------------------------------------------|
-----------------------------------------------|
-----------------------------------------------|
-0----0--0----0--0--0----0----0--0----0--0--0--|
-0----0--0----0--0--0----0----0--0----0--0--0--|




1 + reverb/delay
-----------------------------------------------|
-----------------------------------------------|
-14--14-14-14-14-14-14-14-14-14-14-14-17-17-17-|
-----------------------------------------------|
-----------------------------------------------|
-----------------------------------------------|
L HARMONY
----------------------------------------------------|
----------------------------------------------------|
----17-------17-------------19-17-19-17-15----------|
15-----15-15----15-15-17-19----------------19-------|
----------------------------------------------------|
----------------------------------------------------|
R HARMONY
----------------------------------------------------|
----------------------------------------------------|
----14-------14-------------15-14-15-14-12----------|
12-----12-12----12-12-14-15----------------15-------|
----------------------------------------------------|
----------------------------------------------------|
RYTHM
---------------------------------------------------------|
---------------------------------------------------------|
---------------------------------------------------------|
---------------------------------------------------------|
10----10--10----10--10--10----10----10--10----10--10--10-|
10----10--10----10--10--10----10----10--10----10--10--10-|




1 + reverb/delay
-----------------------------------------------|
-----------------------------------------------|
-14--14-14-14-14-14-14-14-14-14-14-14-14-14-14-|
-----------------------------------------------|
-----------------------------------------------|
-----------------------------------------------|
L HARMONY
-----------------------------------------------|
-----------------------------------------------|
----17-------17-------------19-17-15-----------|
15-----15-15----15-15-17-19----------19-17-15--|
-----------------------------------------------|
-----------------------------------------------|
R HARMONY
-----------------------------------------------|
-----------------------------------------------|
----14-------14-------------15-14-12-----------|
12-----12-12----12-12-14-15----------15-14-12--|
-----------------------------------------------|
-----------------------------------------------|
RYTHM
-----------------------------------------------|
-----------------------------------------------|
-----------------------------------------------|
-----------------------------------------------|
-8----8--8----8--8--8----8----8--8----8--8--8--|
-8----8--8----8--8--8----8----8--8----8--8--8--|





1 + reverb/delay
-------------------------------------------------|
-------------------------------------------------|
-------------------------------------------------|
-17--17-17-17-17-17-17-15-15-15-15-14-14-14-14---|
-------------------------------------------------|
-------------------------------------------------|
L HARMONY
----------------------------------------------------|
----------------------------------------------------|
----17-------17-------------19-17-19-17-15----------|
15-----15-15----15-15-17-19----------------19-15----|
----------------------------------------------------|
----------------------------------------------------|
R HARMONY
----------------------------------------------------|
----------------------------------------------------|
----14-------14-------------15-14-15-14-12----------|
12-----12-12----12-12-14-15----------------15-12----|
----------------------------------------------------|
----------------------------------------------------|
RYTHM
----------------------------------------------------|
----------------------------------------------------|
----------------------------------------------------|
----------------------------------------------------|
----------------------12--8-12-12-12-12-12-12-12----|
-7---7--7--7--7--7--7--8--8--8--8--8--8--8--8--8----|




1 + reverb/delay
-----------------------------------------------|
-----------------------------------------------|
-14--14-14-14-14-14-14-14-14-14-14-14-14-14-14-|
-----------------------------------------------|
-----------------------------------------------|
-----------------------------------------------|
L HARMONY
-----------------------------------------------|
-----------------------------------------------|
----17-------17-------------19-17-15-----------|
15-----15-15----15-15-17-19----------19-17-15--|
-----------------------------------------------|
-----------------------------------------------|
R HARMONY
-----------------------------------------------|
-----------------------------------------------|
----14-------14-------------15-14-12-----------|
12-----12-12----12-12-14-15----------15-14-12--|
-----------------------------------------------|
-----------------------------------------------|
RYTHM
-----------------------------------------------|
-----------------------------------------------|
-----------------------------------------------|
-----------------------------------------------|
-0----0--0----0--0--0----0----0--0----0--0--0--|
-0----0--0----0--0--0----0----0--0----0--0--0--|




1 + reverb/delay
-----------------------------------------------|
-----------------------------------------------|
-14--14-14-14-14-14-14-14-14-14-14-14-17-17-17-|
-----------------------------------------------|
-----------------------------------------------|
-----------------------------------------------|
L HARMONY
----------------------------------------------------|
----------------------------------------------------|
----17-------17-------------19-17-19-17-15----------|
15-----15-15----15-15-17-19----------------19-------|
----------------------------------------------------|
----------------------------------------------------|
R HARMONY
----------------------------------------------------|
----------------------------------------------------|
----14-------14-------------15-14-15-14-12----------|
12-----12-12----12-12-14-15----------------15-------|
----------------------------------------------------|
----------------------------------------------------|
RYTHM
---------------------------------------------------------|
---------------------------------------------------------|
---------------------------------------------------------|
---------------------------------------------------------|
10----10--10----10--10--10----10----10--10----10--10--10-|
10----10--10----10--10--10----10----10--10----10--10--10-|



1 + reverb/delay
-----------------------------------------------|
-15--15-15-15-15-15-15-15-15-15-15-15-15-15-15-|
-----------------------------------------------|
-----------------------------------------------|
-----------------------------------------------|
-----------------------------------------------|
L HARMONY
-----------------------------------------------|
-----------------------------------------------|
----17-------17-------------19-17-15-----------|
15-----15-15----15-15-17-19----------19-17-15--|
-----------------------------------------------|
-----------------------------------------------|
R HARMONY
-----------------------------------------------|
-----------------------------------------------|
----14-------14-------------15-14-12-----------|
12-----12-12----12-12-14-15----------15-14-12--|
-----------------------------------------------|
-----------------------------------------------|
RYTHM
-----------------------------------------------|
-----------------------------------------------|
-----------------------------------------------|
-----------------------------------------------|
-8----8--8----8--8--8----8----8--8----8--8--8--|
-8----8--8----8--8--8----8----8--8----8--8--8--|




1 + reverb/delay
-----------------------------------------------------|
-17--17-17-17-17-17-17-18--18-18-18-18-18-18-18------|
-----------------------------------------------------|
------------------------------------------------15~--|
-----------------------------------------------------|
-----------------------------------------------------|
L HARMONY
----------------------------------------------------|
----------------------------------------------------|
----17-------17-------------19-17-19-17-15----------|
15-----15-15----15-15-17-19----------------19-15----|
----------------------------------------------------|
----------------------------------------------------|
R HARMONY
----------------------------------------------------|
----------------------------------------------------|
----14-------14-------------15-14-15-14-12----------|
12-----12-12----12-12-14-15----------------15-12----|
----------------------------------------------------|
----------------------------------------------------|
RYTHM
----------------------------------------------------|
----------------------------------------------------|
----------------------------------------------------|
----------------------------------------------------|
----------------------12--8-12-12-12-12-12-12-12--\-|
-7---7--7--7--7--7--7--8--8--8--8--8--8--8--8--8--\-|
Добавлено: 06.07.2013
Другие материалы по этой песне:
  • Аккорды и текст

Страница создана 06.07.2013
http://primanota.ru/bury-tomorrow/abdication-of-power-chords.htm
Привет, Гость.
Предлагаем пройти революционный курс по гитаре.
Подарок от PrimaNota.Ru, забирай!