PrimaNota.ru - самый крупный в мире бесплатный архив песенных текстов, аккордов, табулатур и нот


Bury Tomorrow - An Honourable Reign - таба, видео

Регистрация Запомнить меня
Войти через:  Facebook Google Twitter Vk Yandex Mail.ru

Bury Tomorrow - An Honourable Reign - таба, видео

Печатать
Просмотров: 166
----------------------------------------------------------------------------
                         An Honourable Reign
                            Bury Tomorrow
----------------------------------------------------------------------------

These guys are gods.

Username: dkm817 (same on X box live)
Youtube Cover: http://www.youtube.com/watch?v=iT7UPxDwEnw
Email: guitardrums@rockfan.com

Guitar 1 Rhythmic (B  F# B  E  G# C#)
Guitar 2 Lead     (B  F# B  E  G# C#)

Tab Guide...
===================================================================
(end of measures)

===================================================================
===================================================================
(end of parts)

===================================================================
===================================================================
===================================================================
(end of song)
(If there is a “continued” it is because the numbers could not
fit on 1 line or connecting times played.)


Chorus

Guitar 1
C#-----------------------------------------------------------------|
G#-----------------------------------------------------------------|
E -----------------------------------------------------------------|
B -3---3---3---3---3---3---3---3---0---0---0---0---0---0---0---0---|
F#-3---3---3---3---3---3---3---3---0---0---0---0---0---0---0---0---|
B -3---3---3---3---3---3---3---3---0---0---0---0---0---0---0---0---|

Guitar 2
C#-----------------------------------------------------------------|
G#-10--10--10--10--10--13--13--12--12--8---8---8---8---8---8---8---|
E -x---x---x---x---x---x---x---x---x---x---x---x---x---x---x---x---|
B -7---7---7---7---7---10--10--9---9---5---5---5---5---5---5---5---|
F#-----------------------------------------------------------------|
B -----------------------------------------------------------------|

===================================================================
Guitar 1
C#-----------------------------------------------------------------|
G#-----------------------------------------------------------------|
E -----------------------------------------------------------------|
B -7---7---7---7---7---7---7---7---5---5---5---5---5---5---5---5---|
F#-7---7---7---7---7---7---7---7---5---5---5---5---5---5---5---5---|
B -7---7---7---7---7---7---7---7---5---5---5---5---5---5---5---5---|

Guitar 2
C#-----------------------------------------------------------------|
G#-10--10--10--10--10--13--13--12--12--17--17--15--15--15--15--15--|
E -x---x---x---x---x---x---x---x---x---x---x---x---x---x---x---x---|
B -7---7---7---7---7---10--10--9---9---14--14--12--12--12--12--12--|
F#-----------------------------------------------------------------|
B -----------------------------------------------------------------|

===================================================================

Guitar 1
C#-----------------------------------------------------------------|
G#-----------------------------------------------------------------|
E -----------------------------------------------------------------|
B -3---3---3---3---3---3---3---3---0---0---0---0---0---0---0---0---|
F#-3---3---3---3---3---3---3---3---0---0---0---0---0---0---0---0---|
B -3---3---3---3---3---3---3---3---0---0---0---0---0---0---0---0---|

Guitar 2
C#-----------------------------------------------------------------|
G#-10--10--10--10--10--13--13--12--12--8---8---8---8---8---8---8---|
E -x---x---x---x---x---x---x---x---x---x---x---x---x---x---x---x---|
B -7---7---7---7---7---10--10--9---9---5---5---5---5---5---5---5---|
F#-----------------------------------------------------------------|
B -----------------------------------------------------------------|

===================================================================
Guitar 1
C#-----------------------------------------------------------------|
G#-----------------------------------------------------------------|
E -----------------------------------------------------------------|
B -7---7---7---7---7---7---7---7---5---5---5---5---5---5---5---5---|
F#-7---7---7---7---7---7---7---7---5---5---5---5---5---5---5---5---|
B -7---7---7---7---7---7---7---7---5---5---5---5---5---5---5---5---|

Guitar 2
C#-----------------------------------------------------------------|
G#-10--10--10--10--10--13--13--12--12--13--13--13--13--13--13--13--|
E -x---x---x---x---x---x---x---x---x---x---x---x---x---x---x---x---|
B -7---7---7---7---7---10--10--9---9---10--10--10--10--10--10--10--|
F#-----------------------------------------------------------------|
B -----------------------------------------------------------------|

===================================================================
===================================================================


Guitar Solo

Guitar 1
C#-----------------------------------------------------------------|
G#-----------------------------------------------------------------|
E -----------------------------------------------------------------|
B -3~~~~~~~~~~-3---3---3---3---0~~~~~~-0---0~~~~~~-0---0~~~~~~-0---|
F#-3~~~~~~~~~~-3---3---3---3---0~~~~~~-0---0~~~~~~-0---0~~~~~~-0---|
B -3~~~~~~~~~~-3---3---3---3---0~~~~~~-0---0~~~~~~-0---0~~~~~~-0---|
Pm             .       .   .           .   .       .   .       .

Guitar 2
C#t12p8p7p5t12p8p7p5t12p8p7p5t12p8p7p5t12p8p7p5t12p8p7p5t12p8p7p5t12p87p5-
G#------------------------------------------------------------------------|
E ------------------------------------------------------------------------|
B ------------------------------------------------------------------------|
F#------------------------------------------------------------------------|
B ------------------------------------------------------------------------|

===================================================================

Guitar 1
C#-----------------------------------------------------------------|
G#-----------------------------------------------------------------|
E -----------------------------------------------------------------|
B -7~~~~~~~~~~-7---7---7---7---5~~~~~~-5---5~~~~~~-2---2~~~~~~-2---|
F#-7~~~~~~~~~~-7---7---7---7---5~~~~~~-5---5~~~~~~-2---2~~~~~~-2---|
B -7~~~~~~~~~~-7---7---7---7---5~~~~~~-5---5~~~~~~-2---2~~~~~~-2---|
Pm             .       .   .           .   .       .   .       .

Guitar 2
C#t15p8p7p5t15p8p7p5t15p8p7p5t15p8p7p5-7p8p7p5t17p8p7p5t17p8p7p5t12p87p5-
G#-----------------------------------------------------------------------|
E -----------------------------------------------------------------------|
B -----------------------------------------------------------------------|
F#-----------------------------------------------------------------------|
B -----------------------------------------------------------------------|

===================================================================

Guitar 1
C#-----------------------------------------------------------------|
G#-----------------------------------------------------------------|
E -----------------------------------------------------------------|
B -3~~~~~~~~~~-3---3---3---3---0~~~~~~-0---0~~~~~~-0---0~~~~~~-0---|
F#-3~~~~~~~~~~-3---3---3---3---0~~~~~~-0---0~~~~~~-0---0~~~~~~-0---|
B -3~~~~~~~~~~-3---3---3---3---0~~~~~~-0---0~~~~~~-0---0~~~~~~-0---|
Pm             .       .   .           .   .       .   .       .

Guitar 2
C#-------------------------------------------------|
G#-13h15-13h15-13h15-13h15-12h13-12h13-12h13-12h13-|
E -------------------------------------------------|
B -------------------------------------------------|
F#-------------------------------------------------|
B -------------------------------------------------|

Guitar 2 continued
C#-------------------------------------------------|
G#-13h15-13h15-13h15-13h15-12h13-12h13-12h13-12h13-|
E -------------------------------------------------|
B -------------------------------------------------|
F#-------------------------------------------------|
B -------------------------------------------------|

===================================================================

Guitar 1
C#-----------------------------------------------------------------|
G#-----------------------------------------------------------------|
E -----------------------------------------------------------------|
B -7~~~~~~~~~~-7---7---7---7---5~~~~~~-5---5~~~~~~-2---2~~~~~~-2---|
F#-7~~~~~~~~~~-7---7---7---7---5~~~~~~-5---5~~~~~~-2---2~~~~~~-2---|
B -7~~~~~~~~~~-7---7---7---7---5~~~~~~-5---5~~~~~~-2---2~~~~~~-2---|
Pm             .       .   .           .   .       .   .       .

Guitar 2
C#-15--------------------15----------------------------------------|
G#-----13~~~-12~~~-13~~~-------------------------------------------|
E ---------------------------14~~~~~~~~~~~~~~~~~~~~~~~~~~~~~~~~~~~-|
B -----------------------------------------------------------------|
F#-----------------------------------------------------------------|
B -----------------------------------------------------------------|

===================================================================
===================================================================


Bridge 1

Guitar 1
C#-----------------------------------------------------------------|
G#-----------------------------------------------------------------|
E -----------------------------------------------------------------|
B ---------------------------------------------------------2h3p2p0-|
F#---------------------------------2h3p2p0---------2h3p2p0---------|
B -----------------------------------------3~b~r~~-----------------|

Guitar 2
C#-----------------------------------------------------------------|
G#-----------------------------------------------------------------|
E -----------------------------------------------------------------|
B -----10--10------9---------------------------------------2h3p2p0-|
F#-0-----------0-------0---10--10--2h3p2p0---------2h3p2p0---------|
B -----------------------------------------3~b~r~~-----------------|
Pm .           .       .

===================================================================
===================================================================


Verse 1

Guitar 1 & 2
C#-----------------------------------------------------------------|
G#-----------------------------------------------------------------|
E -----------------------------------------------------------------|
B -----10--10------9-----------------------------------------------|
F#-0-----------0-------0---10--10--0---5---0---7---0---2---3---2---|
B -----------------------------------------------------------------|
Pm .           .       .           .       .       .

===================================================================

Guitar 1 & 2
C#-----------------------------------------------------------------|
G#-----------------------------------------------------------------|
E -----------------------------------------------------------------|
B -----0-------5-------0-------2-----------------------------------|
F#---------------------------------2h3p2p0---------2h3p2p0---------|
B -3-------3-------3-------3---------------3~b~r~~---------5~b~r~~-|
Pm .       .       .       .

===================================================================

Guitar 1 & 2
C#-----------------------------------------------------------------|
G#-----------------------------------------------------------------|
E -----------------------------------------------------------------|
B -----10--10------9-----------------------------------------------|
F#-0-----------0-------0---10--10--0---5---0---7---0---2---3---2---|
B -----------------------------------------------------------------|
Pm .           .       .           .       .       .

===================================================================

Guitar 1 & 2
C#-----------------------------------------------------------------|
G#-----------------------------------------------------------------|
E -----------------------------------------------------------------|
B -----0-------5-------0-------2---------------------------2h3p2p0-|
F#---------------------------------2h3p2p0---------2h3p2p0---------|
B -3-------3-------3-------3---------------3~b~r~~-----------------|
Pm .       .       .       .

===================================================================

Guitar 1 & 2
C#-----------------------------------------------------------------|
G#-----------------------------------------------------------------|
E -----------------------------------------------------------------|
B -----10--10------9-----------------------------------------------|
F#-0-----------0-------0---10--10--0---5---0---7---0---2---3---2---|
B -----------------------------------------------------------------|
Pm .           .       .           .       .       .

===================================================================

Guitar 1 & 2
C#-----------------------------------------------------------------|
G#-----------------------------------------------------------------|
E -----------------------------------------------------------------|
B -----0-------5-------0-------2-----------------------------------|
F#---------------------------------2h3p2p0---------2h3p2p0---------|
B -3-------3-------3-------3---------------3~b~r~~---------5~b~r~~-|
Pm .       .       .       .

===================================================================

Guitar 1 & 2
C#-----------------------------------------------------------------|
G#-----------------------------------------------------------------|
E -----------------------------------------------------------------|
B -----10--10------9-----------------------------------------------|
F#-0-----------0-------0---10--10--0---5---0---7---0---2---3---2---|
B -----------------------------------------------------------------|
Pm .           .       .           .       .       .

===================================================================

Guitar 1 & 2
C#-----------------------------------------------------------------|
G#-----------------------------------------------------------------|
E -----------------------------------------------------------------|
B -----0-------5-------0-------2-----------------------------------|
F#-----------------------------------------------------------------|
B -3-------3-------3-------3---------------------------------------|
Pm .       .       .       .

===================================================================
===================================================================


Pre Chorus 1

(x2)

Guitar 1 & 2
C#------------------------------------------------------------------|
G#-------------------------------------------------1~~~~~~----------|
E -----------------------------------------2~~~~~~~~~~~~~~----------|
B -0---0-0-0---0---0---0--------------------------------------------|
F#-0---0-0-0---0---0---0---------------1~~~~~~-1~~~~~~-1~~----------|
B -0---0-0-0---0---0---0-----------------------------------2---3~~~-|
Pm     . . .

===================================================================

Guitar 1 & 2
C#-----------------------------------------------------------------|
G#-----------------------------------------------------------------|
E -----------------------------------------------------------------|
B -----0-0-0---0---0---0---0-0---0-0---0-0-0~~~~~~~~-0-0-0~~~~~~~~-|
F#-----0-0-0---0---0---0---0-0---0-0---0-0-0~~~~~~~~-0-0-0~~~~~~~~-|
B -b~~-0-0-0---0---0---0---0-0---0-0---0-0-0~~~~~~~~-0-0-0~~~~~~~~-|
Pm     . . .           .   . .   .     . . .         . . .

===================================================================
===================================================================


Chorus

Guitar 1
C#-----------------------------------------------------------------|
G#-----------------------------------------------------------------|
E -----------------------------------------------------------------|
B -3---3---3---3---3---3---3---3---0---0---0---0---0---0---0---0---|
F#-3---3---3---3---3---3---3---3---0---0---0---0---0---0---0---0---|
B -3---3---3---3---3---3---3---3---0---0---0---0---0---0---0---0---|

Guitar 2
C#-----------------------------------------------------------------|
G#-10--10--10--10--10--13--13--12--12--8---8---8---8---8---8---8---|
E -x---x---x---x---x---x---x---x---x---x---x---x---x---x---x---x---|
B -7---7---7---7---7---10--10--9---9---5---5---5---5---5---5---5---|
F#-----------------------------------------------------------------|
B -----------------------------------------------------------------|

===================================================================
Guitar 1
C#-----------------------------------------------------------------|
G#-----------------------------------------------------------------|
E -----------------------------------------------------------------|
B -7---7---7---7---7---7---7---7---5---5---5---5---5---5---5---5---|
F#-7---7---7---7---7---7---7---7---5---5---5---5---5---5---5---5---|
B -7---7---7---7---7---7---7---7---5---5---5---5---5---5---5---5---|

Guitar 2
C#-----------------------------------------------------------------|
G#-10--10--10--10--10--13--13--12--12--17--17--15--15--15--15--15--|
E -x---x---x---x---x---x---x---x---x---x---x---x---x---x---x---x---|
B -7---7---7---7---7---10--10--9---9---14--14--12--12--12--12--12--|
F#-----------------------------------------------------------------|
B -----------------------------------------------------------------|

===================================================================

Guitar 1
C#-----------------------------------------------------------------|
G#-----------------------------------------------------------------|
E -----------------------------------------------------------------|
B -3---3---3---3---3---3---3---3---0---0---0---0---0---0---0---0---|
F#-3---3---3---3---3---3---3---3---0---0---0---0---0---0---0---0---|
B -3---3---3---3---3---3---3---3---0---0---0---0---0---0---0---0---|

Guitar 2
C#-----------------------------------------------------------------|
G#-10--10--10--10--10--13--13--12--12--8---8---8---8---8---8---8---|
E -x---x---x---x---x---x---x---x---x---x---x---x---x---x---x---x---|
B -7---7---7---7---7---10--10--9---9---5---5---5---5---5---5---5---|
F#-----------------------------------------------------------------|
B -----------------------------------------------------------------|

===================================================================
Guitar 1
C#-----------------------------------------------------------------|
G#-----------------------------------------------------------------|
E -----------------------------------------------------------------|
B -7---7---7---7---7---7---7---7---5---5---5---5---5---5---5---5---|
F#-7---7---7---7---7---7---7---7---5---5---5---5---5---5---5---5---|
B -7---7---7---7---7---7---7---7---5---5---5---5---5---5---5---5---|

Guitar 2
C#-----------------------------------------------------------------|
G#-10--10--10--10--10--13--13--12--12--13--13--13--13--13--13--13--|
E -x---x---x---x---x---x---x---x---x---x---x---x---x---x---x---x---|
B -7---7---7---7---7---10--10--9---9---10--10--10--10--10--10--10--|
F#-----------------------------------------------------------------|
B -----------------------------------------------------------------|

===================================================================
===================================================================


Bridge 2

Guitar 1 & 2
C#-----------------------------------------------------------------|
G#-----------------------------------------------------------------|
E -----------------------------------------------------------------|
B -3~~~~~~~~~~-3---3---3---3---3~~~~~~-0~~~~~~-0-------------------|
F#-3~~~~~~~~~~-3---3---3---3---3~~~~~~-0~~~~~~-0-------------------|
B -3~~~~~~~~~~-3---3---3---3---3~~~~~~-0~~~~~~-0-------------------|
Pm             .       .   .           .       .

===================================================================

Guitar 1 & 2
C#-----------------------------------------------------------------|
G#-----------------------------------------------------------------|
E -----------------------------------------------------------------|
B -7~~~~~~~~~~-7---7---7---7---5~~~~~~-2~~~~~~-2-------------------|
F#-7~~~~~~~~~~-7---7---7---7---5~~~~~~-2~~~~~~-2-------------------|
B -7~~~~~~~~~~-7---7---7---7---5~~~~~~-2~~~~~~-2-------------------|
Pm             .       .   .           .       .

===================================================================

Guitar 1 & 2
C#-----------------------------------------------------------------|
G#-----------------------------------------------------------------|
E -----------------------------------------------------------------|
B -3~~~~~~~~~~-3---3---3---3---3~~~~~~-0~~~~~~-0-------------------|
F#-3~~~~~~~~~~-3---3---3---3---3~~~~~~-0~~~~~~-0-------------------|
B -3~~~~~~~~~~-3---3---3---3---3~~~~~~-0~~~~~~-0-------------------|
Pm             .       .   .           .       .

===================================================================

Guitar 1 & 2
C#-----------------------------------------------------------------|
G#-----------------------------------------------------------------|
E -----------------------------------------------------------------|
B -7~~~~~~~~~~-7---7---7---7---5~~~~~~-2~~~~~~-2-------------------|
F#-7~~~~~~~~~~-7---7---7---7---5~~~~~~-2~~~~~~-2-------------------|
B -7~~~~~~~~~~-7---7---7---7---5~~~~~~-2~~~~~~-2-------------------|
Pm             .       .   .           .       .

===================================================================

Guitar 1
C#-----------------------------------------------------------------|
G#-----------------------------------------------------------------|
E -----------------------------------------------------------------|
B -3~~~~~~~~~~-3---3---3---3---3~~~~~~-0~~~~~~-0-------------------|
F#-3~~~~~~~~~~-3---3---3---3---3~~~~~~-0~~~~~~-0-------------------|
B -3~~~~~~~~~~-3---3---3---3---3~~~~~~-0~~~~~~-0-------------------|
Pm             .       .   .           .       .

Guitar 2
C#-----------------12~~~~~~~~~~~~~~~~~-12~~~~~~~~~~~~~~~~~~~~~-12~-|
G#---------10~~~~~~~~~~~~~~~~~-10~~~~~~~~~~~~~~~~~~~~~-10~~~~~~~~~-|
E -12~~~~~~~~~~~~~~~~~~~~~-12~~~~~~~~~~~~~~~~~-12~~~~~~~~~~~~~~~~~-|
B -----------------------------------------------------------------|
F#-----------------------------------------------------------------|
B -----------------------------------------------------------------|

===================================================================

Guitar 1
C#-----------------------------------------------------------------|
G#-----------------------------------------------------------------|
E -----------------------------------------------------------------|
B -7~~~~~~~~~~-7---7---7---7---5~~~~~~-2~~~~~~-2-------------------|
F#-7~~~~~~~~~~-7---7---7---7---5~~~~~~-2~~~~~~-2-------------------|
B -7~~~~~~~~~~-7---7---7---7---5~~~~~~-2~~~~~~-2-------------------|
Pm             .       .   .           .       .

Guitar 2
C#-----------------12~~~~~~~~~~~~~~~~~-12~~~~~~~~~~~~~~~~~~~~~-12~-|
G#---------10~~~~~~~~~~~~~~~~~-10~~~~~~~~~~~~~~~~~~~~~-10~~~~~~~~~-|
E -12~~~~~~~~~~~~~~~~~~~~~-12~~~~~~~~~~~~~~~~~-12~~~~~~~~~~~~~~~~~-|
B -----------------------------------------------------------------|
F#-----------------------------------------------------------------|
B -----------------------------------------------------------------|

===================================================================

Guitar 1
C#-----------------------------------------------------------------|
G#-----------------------------------------------------------------|
E -----------------------------------------------------------------|
B -3~~~~~~~~~~-3---3---3---3---3~~~~~~-0~~~~~~-0-------------------|
F#-3~~~~~~~~~~-3---3---3---3---3~~~~~~-0~~~~~~-0-------------------|
B -3~~~~~~~~~~-3---3---3---3---3~~~~~~-0~~~~~~-0-------------------|
Pm             .       .   .           .       .

Guitar 2
C#-----------------12~~~~~~~~~~~~~~~~~-12~~~~~~~~~~~~~~~~~~~~~-12~-|
G#---------10~~~~~~~~~~~~~~~~~-10~~~~~~~~~~~~~~~~~~~~~-10~~~~~~~~~-|
E -12~~~~~~~~~~~~~~~~~~~~~-12~~~~~~~~~~~~~~~~~-12~~~~~~~~~~~~~~~~~-|
B -----------------------------------------------------------------|
F#-----------------------------------------------------------------|
B -----------------------------------------------------------------|

===================================================================

Guitar 1
C#-----------------------------------------------------------------|
G#-----------------------------------------------------------------|
E -----------------------------------------------------------------|
B -7~~~~~~~~~~-7---7---7---7---5~~~~~~-2~~~~~~-2-------------------|
F#-7~~~~~~~~~~-7---7---7---7---5~~~~~~-2~~~~~~-2-------------------|
B -7~~~~~~~~~~-7---7---7---7---5~~~~~~-2~~~~~~-2-------------------|
Pm             .       .   .           .       .

Guitar 2
C#-----------------12~~~~~~~~~~~~~~~~~-12~~~~~~~~~~~~~~~~~~~~~-12~-|
G#---------10~~~~~~~~~~~~~~~~~-10~~~~~~~~~~~~~~~~~~~~~-10~~~~~~~~~-|
E -12~~~~~~~~~~~~~~~~~~~~~-12~~~~~~~~~~~~~~~~~-12~~~~~~~~~~~~~~~~~-|
B -----------------------------------------------------------------|
F#-----------------------------------------------------------------|
B -----------------------------------------------------------------|

===================================================================
===================================================================


Interlude

Guitar 1
C#-----------------------------------------------------------------|
G#-----------------------------------------------------------------|
E -----------------------------------------------------------------|
B -0~~~~~~~~~~~~~~~~~~~~~~~~~~~~~~-0-0-0-0-0-0-0-0~~-0~~-0~~-0~~-0-|
F#-0~~~~~~~~~~~~~~~~~~~~~~~~~~~~~~-0-0-0-0-0-0-0-0~~-0~~-0~~-0~~-0-|
B -0~~~~~~~~~~~~~~~~~~~~~~~~~~~~~~-0-0-0-0-0-0-0-0~~-0~~-0~~-0~~-0-|
Pm                                   . . . . . . .   .   .   .   .

Guitar 2
C#-----12~~~~~~~~~~~~~~~~~~~~~~~~~---------------------------------|
G#---10~~~~~~~~~~~~~~~~~~~~~~~~~~~---------------------------------|
E -12~~~~~~~~~~~~~~~~~~~~~~~~~~~~~---------------------------------|
B ---------------------------------0-0-0-0-0-0-0-0~~-0~~-0~~-0~~-0-|
F#---------------------------------0-0-0-0-0-0-0-0~~-0~~-0~~-0~~-0-|
B ---------------------------------0-0-0-0-0-0-0-0~~-0~~-0~~-0~~-0-|
Pm                                   . . . . . . .   .   .   .   .

===================================================================

Guitar 1 & 2
C#-----------------------------------------------------------------|
G#-----------------------------------------------------------------|
E -----------------------------------------------------------------|
B -0~~~~~~~~~~~~~~~~~~~~~~~~~~~~~~-0-0-0-0-0-0-0-0~~-0~~-----------|
F#-0~~~~~~~~~~~~~~~~~~~~~~~~~~~~~~-0-0-0-0-0-0-0-0~~-0~~-----------|
B -0~~~~~~~~~~~~~~~~~~~~~~~~~~~~~~-0-0-0-0-0-0-0-0~~-0~~-----------|
Pm                                   . . . . . . .   .

===================================================================
===================================================================


Breakdown

Guitar 1 & 2
C#-----------------------------------------------------------------|
G#-----------------------------------------------------------------|
E -----------------------------------------------------------------|
B -0-0~~-0~~-0------0-0~~-0-----0-3-0~~-0~~-0------0-0~~~~-0-0~~~~-|
F#-0-0~~-0~~-0------0-0~~-0-----0-0-0~~-0~~-0------0-0~~~~-0-0~~~~-|
B -0-0~~-0~~-0------0-0~~-0-----0-0-0~~-0~~-0------0-0~~~~-0-0~~~~-|
Pm   .   .   .      . .   .     .   .   .   .      . .     . .

===================================================================

Guitar 1
C#-----------------------------------------------------------------|
G#-----------------------------------------------------------------|
E -----------------------------------------------------------------|
B -0-0~~-0~~-0------0-0~~-0-----0-3-0~~-0~~-0------------0-0-0-----|
F#-0-0~~-0~~-0------0-0~~-0-----0-0-0~~-0~~-0------------0-0-0-----|
B -0-0~~-0~~-0------0-0~~-0-----0-0-0~~-0~~-0------------0-0-0-----|
Pm   .   .   .      . .   .     .   .   .   .            . . .

Guitar 2
C#-----------------------------------------------------------------|
G#-----------------------------------------------------------------|
E -----------------------------------------------------------------|
B -0-0~~-0~~-0------0-0~~-0-----0-3-0~~-0~~-0------0-0-------------|
F#-0-0~~-0~~-0------0-0~~-0-----0-0-0~~-0~~-0------0-0-------------|
B -0-0~~-0~~-0------0-0~~-0-----0-0-0~~-0~~-0------0-0-------------|
Pm   .   .   .      . .   .     .   .   .   .      . .


===================================================================

Guitar 1 & 2
C#-----------------------------------------------------------------|
G#-----------------------------------------------------------------|
E -----------------------------------------------------------------|
B -0-0~~-0~~-0------0-0~~-0-----0-3-0~~-0~~-0------0-0~~~~-0-0~~~~-|
F#-0-0~~-0~~-0------0-0~~-0-----0-0-0~~-0~~-0------0-0~~~~-0-0~~~~-|
B -0-0~~-0~~-0------0-0~~-0-----0-0-0~~-0~~-0------0-0~~~~-0-0~~~~-|
Pm   .   .   .      . .   .     .   .   .   .      . .     . .

===================================================================

Guitar 1 & 2
C#-----------------------------------------------------------------|
G#-----------------------------------------------------------------|
E -----------------------------------------------------------------|
B -0-0~~-0~~-0------0-0~~-0-----0-3-0~~-0~~-0------0-0~~-0-0-0~~~~-|
F#-0-0~~-0~~-0------0-0~~-0-----0-0-0~~-0~~-0------0-0~~-0-0-0~~~~-|
B -0-0~~-0~~-0------0-0~~-0-----0-0-0~~-0~~-0------0-0~~-0-0-0~~~~-|
Pm   .   .   .      . .   .     .   .   .   .      . .   . . .

===================================================================
===================================================================


Chorus

Guitar 1
C#-----------------------------------------------------------------|
G#-----------------------------------------------------------------|
E -----------------------------------------------------------------|
B -3---3---3---3---3---3---3---3---0---0---0---0---0---0---0---0---|
F#-3---3---3---3---3---3---3---3---0---0---0---0---0---0---0---0---|
B -3---3---3---3---3---3---3---3---0---0---0---0---0---0---0---0---|

Guitar 2
C#-----------------------------------------------------------------|
G#-10--10--10--10--10--13--13--12--12--8---8---8---8---8---8---8---|
E -x---x---x---x---x---x---x---x---x---x---x---x---x---x---x---x---|
B -7---7---7---7---7---10--10--9---9---5---5---5---5---5---5---5---|
F#-----------------------------------------------------------------|
B -----------------------------------------------------------------|

===================================================================
Guitar 1
C#-----------------------------------------------------------------|
G#-----------------------------------------------------------------|
E -----------------------------------------------------------------|
B -7---7---7---7---7---7---7---7---5---5---5---5---5---5---5---5---|
F#-7---7---7---7---7---7---7---7---5---5---5---5---5---5---5---5---|
B -7---7---7---7---7---7---7---7---5---5---5---5---5---5---5---5---|

Guitar 2
C#-----------------------------------------------------------------|
G#-10--10--10--10--10--13--13--12--12--17--17--15--15--15--15--15--|
E -x---x---x---x---x---x---x---x---x---x---x---x---x---x---x---x---|
B -7---7---7---7---7---10--10--9---9---14--14--12--12--12--12--12--|
F#-----------------------------------------------------------------|
B -----------------------------------------------------------------|

===================================================================

Guitar 1
C#-----------------------------------------------------------------|
G#-----------------------------------------------------------------|
E -----------------------------------------------------------------|
B -3---3---3---3---3---3---3---3---0---0---0---0---0---0---0---0---|
F#-3---3---3---3---3---3---3---3---0---0---0---0---0---0---0---0---|
B -3---3---3---3---3---3---3---3---0---0---0---0---0---0---0---0---|

Guitar 2
C#-----------------------------------------------------------------|
G#-10--10--10--10--10--13--13--12--12--8---8---8---8---8---8---8---|
E -x---x---x---x---x---x---x---x---x---x---x---x---x---x---x---x---|
B -7---7---7---7---7---10--10--9---9---5---5---5---5---5---5---5---|
F#-----------------------------------------------------------------|
B -----------------------------------------------------------------|

===================================================================
Guitar 1
C#-----------------------------------------------------------------|
G#-----------------------------------------------------------------|
E -----------------------------------------------------------------|
B -7---7---7---7---7---7---7---7---5---5---5---5---5---5---5---5---|
F#-7---7---7---7---7---7---7---7---5---5---5---5---5---5---5---5---|
B -7---7---7---7---7---7---7---7---5---5---5---5---5---5---5---5---|

Guitar 2
C#-----------------------------------------------------------------|
G#-10--10--10--10--10--13--13--12--12--13--13--13--13--13--13--13--|
E -x---x---x---x---x---x---x---x---x---x---x---x---x---x---x---x---|
B -7---7---7---7---7---10--10--9---9---10--10--10--10--10--10--10--|
F#-----------------------------------------------------------------|
B -----------------------------------------------------------------|

===================================================================
===================================================================


Bridge 3

Guitar 1 & 2
C#-----------------------------------------------------------------|
G#-----------------------------------------------------------------|
E -----------------------------------------------------------------|
B -3~~~~~~~~~~~~~~-5~~~~~~~~~~~~~~-ps\~~~~~~~~~~~~~~~~~~~~~~~~~~~~-|
F#-3~~~~~~~~~~~~~~-5~~~~~~~~~~~~~~-ps\~~~~~~~~~~~~~~~~~~~~~~~~~~~~-|
B -3~~~~~~~~~~~~~~-5~~~~~~~~~~~~~~-ps\~~~~~~~~~~~~~~~~~~~~~~~~~~~~-|

===================================================================
===================================================================


Outro 1

(x2)

Guitar 1 & 2
C#-----------------------------------------------------------------|
G#-----------------------------------------------------------------|
E -----------------------------------------------------------------|
B -----10--10------9-----------------------------------------------|
F#-0-----------0-------0---10--10--0---5---0---7---0---2---3---2---|
B -----------------------------------------------------------------|
Pm .           .       .           .       .       .

===================================================================

Guitar 1 & 2
C#-----------------------------------------------------------------|
G#-----------------------------------------------------------------|
E -----------------------------------------------------------------|
B -----0-------5-------0-------2-----------------------------------|
F#---------------------------------2h3p2p0---------2h3p2p0---------|
B -3-------3-------3-------3---------------3~b~r~~---------5~b~r~~-|
Pm .       .       .       .

===================================================================

Guitar 1 & 2
C#-----------------------------------------------------------------|
G#-----------------------------------------------------------------|
E -----------------------------------------------------------------|
B -----10--10------9-----------------------------------------------|
F#-0-----------0-------0---10--10--0---5---0---7---0---2---3---2---|
B -----------------------------------------------------------------|
Pm .           .       .           .       .       .

===================================================================

Guitar 1 & 2
C#-----------------------------------------------------------------|
G#-----------------------------------------------------------------|
E -----------------------------------------------------------------|
B -----0-------5-------0-------2---------------------------2h3p2p0-|
F#---------------------------------2h3p2p0---------2h3p2p0---------|
B -3-------3-------3-------3---------------3~b~r~~-----------------|
Pm .       .       .       .

===================================================================
===================================================================


Outro 2

Guitar 1
C#-----------------------------------------------------------------|
G#---------------------------------1~~~~~~~~~~~~~~~~~~~~~~~~~~~~~~-|
E ---------------------------------2~~~~~~~~~~~~~~~~~~~~~~~~~~~~~~-|
B -------------------------5h7p5p0-2~~~~~~~~~~~~~~~~~~~~~~~~~~~~~~-|
F#-5h7p5p0---------5h7p5p0---------0~~~~~~~~~~~~~~~~~~~~~~~~~~~~~~-|
B ---------5~b~r~~-------------------------------------------------|

Guitar 2
C#-----------------------------------------------------------------|
G#---------------------------------1~~~~~~~~~~~~~~~~~~~~~~~~~~~~~~-|
E ---------------------------------2~~~~~~~~~~~~~~~~~~~~~~~~~~~~~~-|
B -------------------------2h3p2p0-2~~~~~~~~~~~~~~~~~~~~~~~~~~~~~~-|
F#-2h3p2p0---------2h3p2p0---------0~~~~~~~~~~~~~~~~~~~~~~~~~~~~~~-|
B ---------5~b~r~~-------------------------------------------------|

===================================================================
===================================================================
===================================================================


Tab Legend
h  - hammer-on
p  - pull-off
/  - slide up
\  - slide down
ps/- pickslide up
ps\- pickslide down
~  - let ring
pm.- palm mute
b  - bend
r  - return from bend
t  - finger tapping
*  - harmonic
x  - dead note
^  - Whammy bar
^\ - Whammy bar (hold down)

That's the end of it! I hope this helped, and be sure to check out my cover if you are 
having problems with the tab. Thanks, oh and one last thing... ROCK OUT!!!!
Добавлено: 25.06.2013
Другие материалы по этой песне:

Страница создана 25.06.2013
http://primanota.ru/bury-tomorrow/an-honourable-reign-chords.htm
Привет, Гость.
Предлагаем пройти революционный курс по гитаре.
Подарок от PrimaNota.Ru, забирай!