PrimaNota.ru - самый крупный в мире бесплатный архив песенных текстов, аккордов, табулатур и нот


Bury Tomorrow - Relief - текст песни, таба, видео

Регистрация Запомнить меня
Войти через:  Facebook Google Twitter Vk Yandex Mail.ru

Bury Tomorrow - Relief - текст песни, таба, видео

Печатать
Просмотров: 807
Tuning is standard: E,A,D,G,B,E

Only heard this song a couple times but picked it out as close as I can get it 
because no one else had done it. 

Big thank you to Jess Banning for showing me this song:). 

Intro

e----------0--------------0-------------0----------------|
b-------5---5-5--------7---7-7-------8---8-8----12-12-12-|
g------0-0---0--------0-0---0-------0-0---0----0--0--0---|
d--------------------------------------------------------| Pattern 1.
a-----3--------------5------------7---------10-----------|   (Play 1 time).
E--------------------------------------------------------|

e----------0--------------0-------------0----------------|
b-------5---5-5--------7---7-7-------8---8-8--8---12-----|
g------0-0---0--------0-0---0-------0-0---0--0-0-0-------|
d--------------------------------------------------------| Pattern 2.
a-----3--------------5------------7---------7---7-10-----|  (Play 3 times).
E--------------------------------------------------------|



Verse 1.

Strumming patter: D DUDUD 

C | D | Em|G |C2 | F#
0 | 0 | 0 |0 |0  | 0
5 | 7 | 8 |12|17 | 10
0 | 0 | 0 |0 |0  | 0
0 | 0 | 0 |0 |0  | 0
3 | 5 | 7 |10|15 | 9
X | X | X |X |X  | X


C               D      Em
And I know your thinking the worst
C               D      Em       G
And it's in those eyes at first
C               D     Em   G
It's neither good or bad
C                  D   Em     G
So please show me your thoughts 
C2                 G   F#
So please show me your thoughts 
C2          G  F# C2        G      F#
So please show me what i'm meant to believe

C  D Em



C2              G      F#
It's neither good or bad
C2                 G      F#
So please show me your thoughts
C2                 G      F#
So show me what to believe in.

C D Em Finish on Em
Добавлено: 25.03.2012
Другие материалы по этой песне:
  • Аккорды и текст

Страница создана 25.03.2012
http://primanota.ru/bury-tomorrow/relief-chords.htm
Привет, Гость.
Предлагаем пройти революционный курс по гитаре.
Подарок от PrimaNota.Ru, забирай!