PrimaNota.ru - самый крупный в мире бесплатный архив песенных текстов, аккордов, табулатур и нот


Bury Tomorrow - An Honourable Regin - таба, видео

Регистрация Запомнить меня
Войти через:  Facebook Google Twitter Vk Yandex Mail.ru

Bury Tomorrow - An Honourable Regin - таба, видео

Печатать
Просмотров: 132
Guitar 1

Legend
L - tied note
x - dead note
h - hammer on/pull off
b - bend
s - slide
~ - vibrato
g - ghost note
> - accentuated note
t - trill
M - palm mute
. - staccato
P - popping (bass)
S - slapping (bass)
+ - tapping
W - wide vibrato
< - fade in
w - whammy bar
= - tremolo picking
v - brush up
^ - brush down
V - pick stroke up
n - pick stroke down


C#|----------------------------|----------------------------|
G#|--10-10-10-10-10-13-13-12---|--12-8--8--8--8--8--8--8----|
E |----------------------------|----------------------------|
B |--7--7--7--7--7--10-10-9----|--9--5--5--5--5--5--5--5----|
F#|----------------------------|----------------------------|
B |----------------------------|----------------------------|


----------------------------|----------------------------|
--10-10-10-10-10-13-13-12---|--12-17-17-15-15-15-15-15---|
----------------------------|----------------------------|
--7--7--7--7--7--10-10-9----|--9--14-14-12-12-12-12-12---|
----------------------------|----------------------------|
----------------------------|----------------------------|


----------------------------|----------------------------|
--10-10-10-10-10-13-13-12---|--12-8--8--8--8--8--8--8----|
----------------------------|----------------------------|
--7--7--7--7--7--10-10-9----|--9--5--5--5--5--5--5--5----|
----------------------------|----------------------------|
----------------------------|----------------------------|


----------------------------|----------------------------|
--10-10-10-10-10-13-13-12---|--12-13-13-13-13-13-13-13---|
----------------------------|----------------------------|
--7--7--7--7--7--10-10-9----|--9--10-10-10-10-10-10-10---|
----------------------------|----------------------------|
----------------------------|----------------------------|


----------------------------|----------------------------|
--10-10-10-10-10-13-13-12---|--12-8--8--8--8--8--8--8----|
----------------------------|----------------------------|
--7--7--7--7--7--10-10-9----|--9--5--5--5--5--5--5--5----|
----------------------------|----------------------------|
----------------------------|----------------------------|


----------------------------|----------------------------|
--10-10-10-10-10-13-13-12---|--12-17-17-15-15-15-15-15---|
----------------------------|----------------------------|
--7--7--7--7--7--10-10-9----|--9--14-14-12-12-12-12-12---|
----------------------------|----------------------------|
----------------------------|----------------------------|


----------------------------|----------------------------|
--10-10-10-10-10-13-13-12---|--12-8--8--8--8--8--8--8----|
----------------------------|----------------------------|
--7--7--7--7--7--10-10-9----|--9--5--5--5--5--5--5--5----|
----------------------------|----------------------------|
----------------------------|----------------------------|


----------------------------|----------------------------|
--10-10-10-10-10-13-13-12---|--12-13-13-13-13-13-13-13---|
----------------------------|----------------------------|
--7--7--7--7--7--10-10-9----|--9--10-10-10-10-10-10-10---|
----------------------------|----------------------------|
----------------------------|----------------------------|


--12h8h-7h-5--12h8h-7h-5--12h8h-7h-5--12h8h-7h-5----|
----------------------------------------------------|
----------------------------------------------------|
----------------------------------------------------|
----------------------------------------------------|
----------------------------------------------------|


--12h8h-7h-5--12h8h-7h-5--12h8h-7h-5--12h8h-7h-5----|
----------------------------------------------------|
----------------------------------------------------|
----------------------------------------------------|
----------------------------------------------------|
----------------------------------------------------|


--15h8h-7h-5--15h8h-7h-5--15h8h-7h-5--7h-8h-7h-5----|
----------------------------------------------------|
----------------------------------------------------|
----------------------------------------------------|
----------------------------------------------------|
----------------------------------------------------|


--17h8h-7h-5--17h8h-7h-5--12h8h-7h-5--12h8h-7h-5----|
----------------------------------------------------|
----------------------------------------------------|
----------------------------------------------------|
----------------------------------------------------|
----------------------------------------------------|


----------------------------------------------------|
--13h15-13h15-13h15-13h15-12h13-12h13-12h13-12h13---|
----------------------------------------------------|
----------------------------------------------------|
----------------------------------------------------|
----------------------------------------------------|


----------------------------------------------------|
--10h12-10h12-10h12-10h12-8h-10-8h-10-8h-10-8h-10---|
----------------------------------------------------|
----------------------------------------------------|
----------------------------------------------------|
----------------------------------------------------|


--15-------------------15---|-------|----------------------------|
-----13----12----13---------|-------|----------------------------|
----------------------------|--14~--|----------------------------|
----------------------------|-------|-----10-10----9-------------|
----------------------------|-------|--0M-------0M----0M-10-10---|
----------------------------|-------|----------------------------|


----------------------------------------------------|
----------------------------------------------------|
----------------------------------------------------|
--------------------------------------2--3--2--0----|
--2--3--2--0--------------2--3--2--0----------------|
--------------3-------------------------------------|


----------------------------|----------------------------|
----------------------------|----------------------------|
----------------------------|----------------------------|
-----10-10----9-------------|----------------------------|
--0M-------0M----0M-10-10---|--0M-5--0M-7--0M-2--3--2----|
----------------------------|----------------------------|


----------------------------|
----------------------------|
----------------------------|
-----0-----5-----0-----2----|
----------------------------|
--3M----3M----3M----3M------|


----------------------------------------------------|
----------------------------------------------------|
----------------------------------------------------|
----------------------------------------------------|
--2--3--2--0--------------2--3--2--0----------------|
--------------3b----------------------5b------------|


----------------------------|----------------------------|
----------------------------|----------------------------|
----------------------------|----------------------------|
-----10-10----9-------------|----------------------------|
--0M-------0M----0M-10-10---|--0M-5--0M-7--0M-2--3--2----|
----------------------------|----------------------------|


----------------------------|
----------------------------|
----------------------------|
-----0-----5-----0-----2----|
----------------------------|
--3M----3M----3M----3M------|


----------------------------------------------------|
----------------------------------------------------|
----------------------------------------------------|
--------------------------------------2--3--2--0----|
--2--3--2--0--------------2--3--2--0----------------|
--------------3b------------------------------------|


----------------------------|----------------------------|
----------------------------|----------------------------|
----------------------------|----------------------------|
-----10-10----9-------------|----------------------------|
--0M-------0M----0M-10-10---|--0M-5--0M-7--0M-2--3--2----|
----------------------------|----------------------------|


----------------------------|
----------------------------|
----------------------------|
-----0-----5-----0-----2----|
----------------------------|
--3M----3M----3M----3M------|


----------------------------------------------------|
----------------------------------------------------|
----------------------------------------------------|
----------------------------------------------------|
--2--3--2--0--------------2--3--2--0----------------|
--------------3b----------------------5b------------|


----------------------------|----------------------------|
----------------------------|----------------------------|
----------------------------|----------------------------|
-----10-10----9-------------|----------------------------|
--0M-------0M----0M-10-10---|--0M-5--0M-7--0M-2--3--2----|
----------------------------|----------------------------|


----------------------------|----------------|
----------------------------|----------------|
----------------------------|----------------|
-----0-----5-----0-----2----|----------------|
----------------------------|----------------|
--3M----3M----3M----3M------|----------------|


----------------------------------------------------|
----------------------------------------------------|
----------------------------------------------------|
--0-----0M-0M-0M----0-----0-----0-------------------|
--0-----0M-0M-0M----0-----0-----0-------------------|
--0-----0M-0M-0M----0-----0-----0-------------------|


----------------------------|
--------------1L-1L-1-------|
--------2L-2L-2L-2L-2-------|
----------------------------|
-----1-----1-----1L-1-------|
--------------------2--3L---|


----------------------------------------------------|
----------------------------------------------------|
----------------------------------------------------|
--------0M-0M-0M----0-----0-----0M----0M-0M----0M---|
--------0M-0M-0M----0-----0-----0M----0M-0M----0M---|
--3b----0M-0M-0M----0-----0-----0M----0M-0M----0M---|


----------------------------------------------------|
----------------------------------------------------|
----------------------------------------------------|
--0-----0M-0M-0M----------------0M-0M-0M------------|
--0-----0M-0M-0M----------------0M-0M-0M------------|
--0-----0M-0M-0M----------------0M-0M-0M------------|


----------------------------------------------------|
----------------------------------------------------|
----------------------------------------------------|
--0-----0M-0M-0M----0-----0-----0-------------------|
--0-----0M-0M-0M----0-----0-----0-------------------|
--0-----0M-0M-0M----0-----0-----0-------------------|


----------------------------|
--------------1L-1L-1-------|
--------2L-2L-2L-2L-2-------|
----------------------------|
-----1-----1-----1L-1-------|
--------------------2--3L---|


----------------------------------------------------|
----------------------------------------------------|
----------------------------------------------------|
--------0M-0M-0M----0-----0-----0M----0M-0M----0M---|
--------0M-0M-0M----0-----0-----0M----0M-0M----0M---|
--3b----0M-0M-0M----0-----0-----0M----0M-0M----0M---|


----------------------------------------------------|
----------------------------------------------------|
----------------------------------------------------|
--0-----0M-0M-0M----------------0M-0M-0M------------|
--0-----0M-0M-0M----------------0M-0M-0M------------|
--0-----0M-0M-0M----------------0M-0M-0M------------|


----------------------------|----------------------------|
--10-10-10-10-10-13-13-12---|--12-8--8--8--8--8--8--8----|
----------------------------|----------------------------|
--7--7--7--7--7--10-10-9----|--9--5--5--5--5--5--5--5----|
----------------------------|----------------------------|
----------------------------|----------------------------|


----------------------------|----------------------------|
--10-10-10-10-10-13-13-12---|--12-17-17-15-15-15-15-15---|
----------------------------|----------------------------|
--7--7--7--7--7--10-10-9----|--9--14-14-12-12-12-12-12---|
----------------------------|----------------------------|
----------------------------|----------------------------|


----------------------------|----------------------------|
--10-10-10-10-10-13-13-12---|--12-8--8--8--8--8--8--8----|
----------------------------|----------------------------|
--7--7--7--7--7--10-10-9----|--9--5--5--5--5--5--5--5----|
----------------------------|----------------------------|
----------------------------|----------------------------|


----------------------------|----------------------------|
--10-10-10-10-10-13-13-12---|--12-13-13-13-13-13-13-13---|
----------------------------|----------------------------|
--7--7--7--7--7--10-10-9----|--9--10-10-10-10-10-10-10---|
----------------------------|----------------------------|
----------------------------|----------------------------|


----------------------------|----------------------------|
--10-10-10-10-10-13-13-12---|--12-8--8--8--8--8--8--8----|
----------------------------|----------------------------|
--7--7--7--7--7--10-10-9----|--9--5--5--5--5--5--5--5----|
----------------------------|----------------------------|
----------------------------|----------------------------|


----------------------------|----------------------------|
--10-10-10-10-10-13-13-12---|--12-17-17-15-15-15-15-15---|
----------------------------|----------------------------|
--7--7--7--7--7--10-10-9----|--9--14-14-12-12-12-12-12---|
----------------------------|----------------------------|
----------------------------|----------------------------|


----------------------------|----------------------------|
--10-10-10-10-10-13-13-12---|--12-8--8--8--8--8--8--8----|
----------------------------|----------------------------|
--7--7--7--7--7--10-10-9----|--9--5--5--5--5--5--5--5----|
----------------------------|----------------------------|
----------------------------|----------------------------|


----------------------------|----------------------------|
--10-10-10-10-10-13-13-12---|--12-13-13-13-13-13-13-13---|
----------------------------|----------------------------|
--7--7--7--7--7--10-10-9----|--9--10-10-10-10-10-10-10---|
----------------------------|----------------------------|
----------------------------|----------------------------|


----------------------------|----------------------------|
----------------------------|----------------------------|
----------------------------|----------------------------|
--3--------3M-3--3M-3M-0L---|--0--0M----0M---------------|
--3--------3M-3--3M-3M-0L---|--0--0M----0M---------------|
--3--------3M-3--3M-3M-0L---|--0--0M----0M---------------|


----------------------------|----------------------------|
----------------------------|----------------------------|
----------------------------|----------------------------|
--7--------7M-7--7M-7M-5L---|--5--2M----2M---------------|
--7--------7M-7--7M-7M-5L---|--5--2M----2M---------------|
--7--------7M-7--7M-7M-5L---|--5--2M----2M---------------|


----------------------------|----------------------------|
----------------------------|----------------------------|
----------------------------|----------------------------|
--3--------3M-3--3M-3M-0L---|--0--0M----0M---------------|
--3--------3M-3--3M-3M-0L---|--0--0M----0M---------------|
--3--------3M-3--3M-3M-0L---|--0--0M----0M---------------|


----------------------------|----------------------------|
----------------------------|----------------------------|
----------------------------|----------------------------|
--7--------7M-7--7M-7M-5L---|--5--2M----2M---------------|
--7--------7M-7--7M-7M-5L---|--5--2M----2M---------------|
--7--------7M-7--7M-7M-5L---|--5--2M----2M---------------|


--------------12L---12L12---|-----12L---12L---12----12---|
--------10L---10L---10-10L--|--10L10L---10----10L---10---|
--12L---12L---12----12L12L--|--12-------12L---12---------|
----------------------------|----------------------------|
----------------------------|----------------------------|
----------------------------|----------------------------|


--------------12L---12L12---|-----12L---12L---12----12---|
--------10L---10L---10-10L--|--10L10L---10----10L---10---|
--12L---12L---12----12L12L--|--12-------12L---12---------|
----------------------------|----------------------------|
----------------------------|----------------------------|
----------------------------|----------------------------|


--------------12L---12L12---|-----12L---12L---12----12---|
--------10L---10L---10-10L--|--10L10L---10----10L---10---|
--12L---12L---12----12L12L--|--12-------12L---12---------|
----------------------------|----------------------------|
----------------------------|----------------------------|
----------------------------|----------------------------|


--------------12L---12L12---|-----12L---12L---12----12---|
--------10L---10L---10-10L--|--10L10L---10----10L---10---|
--12L---12L---12----12L12L--|--12-------12L---12---------|
----------------------------|----------------------------|
----------------------------|----------------------------|
----------------------------|----------------------------|


--------12L-----------------|--12---|----------------------------|
-----10L10L-----------------|--10---|----------------------------|
--12L12L12L-----------------|--12---|----------------------------|
----------------------------|-------|--0--0M-0M-0M-0M-0M-0M-0L---|
----------------------------|-------|--0--0M-0M-0M-0M-0M-0M-0L---|
----------------------------|-------|--0--0M-0M-0M-0M-0M-0M-0L---|


----------------------------|-------|-------|----------------------------|
----------------------------|-------|-------|----------------------------|
----------------------------|-------|-------|----------------------------|
--0M-0M----0M----0M----0M---|--0L---|--0----|--0--0M-0M-0M-0M-0M-0M-0L---|
--0M-0M----0M----0M----0M---|--0L---|--0----|--0--0M-0M-0M-0M-0M-0M-0L---|
--0M-0M----0M----0M----0M---|--0L---|--0----|--0--0M-0M-0M-0M-0M-0M-0L---|


----------------------------|
----------------------------|
----------------------------|
--0M-0M---------------------|
--0M-0M---------------------|
--0M-0M---------------------|


----------------------------------------------------|
----------------------------------------------------|
----------------------------------------------------|
--0--0M----0M----0M-------------0M-0M----0M----0M---|
--0--0M----0M----0M-------------0M-0M----0M----0M---|
--0--0M----0M----0M-------------0M-0M----0M----0M---|


----------------------------------------------------|
----------------------------------------------------|
----------------------------------------------------|
--3--0M----0M----0M-------0M-0M-------0M-0M---------|
--0--0M----0M----0M-------0M-0M-------0M-0M---------|
--0--0M----0M----0M-------0M-0M-------0M-0M---------|


----------------------------------------------------|
----------------------------------------------------|
----------------------------------------------------|
--0--0M----0M----0M-------------0M-0M----0M----0M---|
--0--0M----0M----0M-------------0M-0M----0M----0M---|
--0--0M----0M----0M-------------0M-0M----0M----0M---|


----------------------------------------------------|
----------------------------------------------------|
----------------------------------------------------|
--3--0M----0M----0M----------------0M-0M-0M---------|
--0--0M----0M----0M----------------0M-0M-0M---------|
--0--0M----0M----0M----------------0M-0M-0M---------|


----------------------------------------------------|
----------------------------------------------------|
----------------------------------------------------|
--0--0M----0M----0M-------------0M-0M----0M----0M---|
--0--0M----0M----0M-------------0M-0M----0M----0M---|
--0--0M----0M----0M-------------0M-0M----0M----0M---|


----------------------------------------------------|
----------------------------------------------------|
----------------------------------------------------|
--3--0M----0M----0M-------0M-0M-------0M-0M---------|
--0--0M----0M----0M-------0M-0M-------0M-0M---------|
--0--0M----0M----0M-------0M-0M-------0M-0M---------|


----------------------------------------------------|
----------------------------------------------------|
----------------------------------------------------|
--0--0M----0M----0M-------------0M-0M----0M----0M---|
--0--0M----0M----0M-------------0M-0M----0M----0M---|
--0--0M----0M----0M-------------0M-0M----0M----0M---|


----------------------------------------------------|
----------------------------------------------------|
----------------------------------------------------|
--3--0M----0M----0M-------0M-0M----0M-0M-0M---------|
--0--0M----0M----0M-------0M-0M----0M-0M-0----------|
--0--0M----0M----0M-------0M-0M----0M-0M-0M---------|


----------------------------|----------------------------|
--10-10-10-10-10-13-13-12---|--12-8--8--8--8--8--8--8----|
----------------------------|----------------------------|
--7--7--7--7--7--10-10-9----|--9--5--5--5--5--5--5--5----|
----------------------------|----------------------------|
----------------------------|----------------------------|


----------------------------|----------------------------|
--10-10-10-10-10-13-13-12---|--12-17-17-15-15-15-15-15---|
----------------------------|----------------------------|
--7--7--7--7--7--10-10-9----|--9--14-14-12-12-12-12-12---|
----------------------------|----------------------------|
----------------------------|----------------------------|


----------------------------|----------------------------|
--10-10-10-10-10-13-13-12---|--12-8--8--8--8--8--8--8----|
----------------------------|----------------------------|
--7--7--7--7--7--10-10-9----|--9--5--5--5--5--5--5--5----|
----------------------------|----------------------------|
----------------------------|----------------------------|


----------------------------|----------------------------|
--10-10-10-10-10-13-13-12---|--12-13-13-13-13-13-13-13---|
----------------------------|----------------------------|
--7--7--7--7--7--10-10-9----|--9--10-10-10-10-10-10-10---|
----------------------------|----------------------------|
----------------------------|----------------------------|


----------------------------|----------------------------|
--10-10-10-10-10-13-13-12---|--12-8--8--8--8--8--8--8----|
----------------------------|----------------------------|
--7--7--7--7--7--10-10-9----|--9--5--5--5--5--5--5--5----|
----------------------------|----------------------------|
----------------------------|----------------------------|


----------------------------|----------------------------|
--10-10-10-10-10-13-13-12---|--12-17-17-15-15-15-15-15---|
----------------------------|----------------------------|
--7--7--7--7--7--10-10-9----|--9--14-14-12-12-12-12-12---|
----------------------------|----------------------------|
----------------------------|----------------------------|


----------------------------|----------------------------|
--10-10-10-10-10-13-13-12---|--12-8--8--8--8--8--8--8----|
----------------------------|----------------------------|
--7--7--7--7--7--10-10-9----|--9--5--5--5--5--5--5--5----|
----------------------------|----------------------------|
----------------------------|----------------------------|


----------------------------|----------------------------|-------|-------|
--10-10-10-10-10-13-13-12---|--12-13-13-13-13-13-13-13---|-------|-------|
----------------------------|----------------------------|-------|-------|
--7--7--7--7--7--10-10-9----|--9--10-10-10-10-10-10-10---|--3----|--5----|
----------------------------|----------------------------|--3----|--5----|
----------------------------|----------------------------|--3----|--5----|


----------------------------------------------------|
----------------------------------------------------|
----------------------------------------------------|
--16-15-14-13-12-11-10-9--8--7--6--5--4--3--2--1----|
--16-15-14-13-12-11-10-9--8--7--6--5--4--3--2--1----|
----------------------------------------------------|


----------------------------|----------------------------|
----------------------------|----------------------------|
----------------------------|----------------------------|
-----10-10----9-------------|----------------------------|
--0M-------0M----0M-10-10---|--0M-5--0M-7--0M-2--3--2----|
----------------------------|----------------------------|


----------------------------|
----------------------------|
----------------------------|
-----0-----5-----0-----2----|
----------------------------|
--3M----3M----3M----3M------|


----------------------------------------------------|
----------------------------------------------------|
----------------------------------------------------|
----------------------------------------------------|
--2--3--2--0--------------2--3--2--0----------------|
--------------3b----------------------5b------------|


----------------------------|----------------------------|
----------------------------|----------------------------|
----------------------------|----------------------------|
-----10-10----9-------------|----------------------------|
--0M-------0M----0M-10-10---|--0M-5--0M-7--0M-2--3--2----|
----------------------------|----------------------------|


----------------------------|
----------------------------|
----------------------------|
-----0-----5-----0-----2----|
----------------------------|
--3M----3M----3M----3M------|


----------------------------------------------------|
----------------------------------------------------|
----------------------------------------------------|
--------------------------------------2--3--2--0----|
--2--3--2--0--------------2--3--2--0----------------|
--------------3b------------------------------------|


----------------------------|----------------------------|
----------------------------|----------------------------|
----------------------------|----------------------------|
-----10-10----9-------------|----------------------------|
--0M-------0M----0M-10-10---|--0M-5--0M-7--0M-2--3--2----|
----------------------------|----------------------------|


----------------------------|
----------------------------|
----------------------------|
-----0-----5-----0-----2----|
----------------------------|
--3M----3M----3M----3M------|


----------------------------------------------------|
----------------------------------------------------|
----------------------------------------------------|
----------------------------------------------------|
--2--3--2--0--------------2--3--2--0----------------|
--------------3b----------------------5b------------|


----------------------------|----------------------------|
----------------------------|----------------------------|
----------------------------|----------------------------|
-----10-10----9-------------|----------------------------|
--0M-------0M----0M-10-10---|--0M-5--0M-7--0M-2--3--2----|
----------------------------|----------------------------|


----------------------------|
----------------------------|
----------------------------|
-----0-----5-----0-----2----|
----------------------------|
--3M----3M----3M----3M------|


----------------------------------------------------|
----------------------------------------------------|
----------------------------------------------------|
--------------------------------------2--3--2--0----|
--2--3--2--0--------------2--3--2--0----------------|
--------------3b------------------------------------|


----------------------------------------------------|-------|-------||
----------------------------------------------------|--1L---|--1----||
----------------------------------------------------|--2L---|--2----||
--------------------------------------5--7--5--0----|--2L---|--2----||
--5--7--5--0--------------5--7--5--0----------------|--0L---|--0----||
--------------5b------------------------------------|-------|-------||
________________________________________________________________________
________________________________________________________________________
________________________________________________________________________
________________________________________________________________________
Guitar 2

Legend
L - tied note
x - dead note
h - hammer on/pull off
b - bend
s - slide
~ - vibrato
g - ghost note
> - accentuated note
t - trill
M - palm mute
. - staccato
P - popping (bass)
S - slapping (bass)
+ - tapping
W - wide vibrato
< - fade in
w - whammy bar
= - tremolo picking
v - brush up
^ - brush down
V - pick stroke up
n - pick stroke down


C#|----------------------------|----------------------------|
G#|----------------------------|----------------------------|
E |----------------------------|----------------------------|
B |--3--3--3--3--3--3--3--3----|--0--0--0--0--0--0--0--0----|
F#|--3--3--3--3--3--3--3--3----|--0--0--0--0--0--0--0--0----|
B |--3--3--3--3--3--3--3--3----|--0--0--0--0--0--0--0--0----|


----------------------------|----------------------------|
----------------------------|----------------------------|
----------------------------|----------------------------|
--7--7--7--7--7--7--7--7----|--5--5--5--5--5--5--5--5----|
--7--7--7--7--7--7--7--7----|--5--5--5--5--5--5--5--5----|
--7--7--7--7--7--7--7--7----|--5--5--5--5--5--5--5--5----|


----------------------------|----------------------------|
----------------------------|----------------------------|
----------------------------|----------------------------|
--3--3--3--3--3--3--3--3----|--0--0--0--0--0--0--0--0----|
--3--3--3--3--3--3--3--3----|--0--0--0--0--0--0--0--0----|
--3--3--3--3--3--3--3--3----|--0--0--0--0--0--0--0--0----|


----------------------------|----------------------------|
----------------------------|----------------------------|
----------------------------|----------------------------|
--7--7--7--7--7--7--7--7----|--5--5--5--5--5--5--5--5----|
--7--7--7--7--7--7--7--7----|--5--5--5--5--5--5--5--5----|
--7--7--7--7--7--7--7--7----|--5--5--5--5--5--5--5--5----|


----------------------------|----------------------------|
----------------------------|----------------------------|
----------------------------|----------------------------|
--3--3--3--3--3--3--3--3----|--0--0--0--0--0--0--0--0----|
--3--3--3--3--3--3--3--3----|--0--0--0--0--0--0--0--0----|
--3--3--3--3--3--3--3--3----|--0--0--0--0--0--0--0--0----|


----------------------------|----------------------------|
----------------------------|----------------------------|
----------------------------|----------------------------|
--7--7--7--7--7--7--7--7----|--5--5--5--5--5--5--5--5----|
--7--7--7--7--7--7--7--7----|--5--5--5--5--5--5--5--5----|
--7--7--7--7--7--7--7--7----|--5--5--5--5--5--5--5--5----|


----------------------------|----------------------------|
----------------------------|----------------------------|
----------------------------|----------------------------|
--3--3--3--3--3--3--3--3----|--0--0--0--0--0--0--0--0----|
--3--3--3--3--3--3--3--3----|--0--0--0--0--0--0--0--0----|
--3--3--3--3--3--3--3--3----|--0--0--0--0--0--0--0--0----|


----------------------------|----------------------------|
----------------------------|----------------------------|
----------------------------|----------------------------|
--7--7--7--7--7--7--7--7----|--5--5--5--5--5--5--5--5----|
--7--7--7--7--7--7--7--7----|--5--5--5--5--5--5--5--5----|
--7--7--7--7--7--7--7--7----|--5--5--5--5--5--5--5--5----|


----------------------------|----------------------------|
----------------------------|----------------------------|
----------------------------|----------------------------|
--3--------3M-3--3M-3M-0L---|--0--0M-0M----0M-0M----0M---|
--3--------3M-3--3M-3M-0L---|--0--0M-0M----0M-0M----0M---|
--3--------3M-3--3M-3M-0L---|--0--0M-0M----0M-0M----0M---|


----------------------------|----------------------------|
----------------------------|----------------------------|
----------------------------|----------------------------|
--7--------7M-7--7M-7M-5L---|--5--5M-5M----2M-2M----2M---|
--7--------7M-7--7M-7M-5L---|--5--5M-5M----2M-2M----2M---|
--7--------7M-7--7M-7M-5L---|--5--5M-5M----2M-2M----2M---|


----------------------------|----------------------------|
----------------------------|----------------------------|
----------------------------|----------------------------|
--3--------3M-3--3M-3M-0L---|--0--0M-0M----0M-0M----0M---|
--3--------3M-3--3M-3M-0L---|--0--0M-0M----0M-0M----0M---|
--3--------3M-3--3M-3M-0L---|--0--0M-0M----0M-0M----0M---|


----------------------------|----------------------------|----------------|
----------------------------|----------------------------|----------------|
----------------------------|----------------------------|----------------|
--7--------7M-7--7M-7M-5L---|--5--5M-5M----2M-2M----2M---|----------------|
--7--------7M-7--7M-7M-5L---|--5--5M-5M----2M-2M----2M---|----------------|
--7--------7M-7--7M-7M-5L---|--5--5M-5M----2M-2M----2M---|----------------|


----------------------------------------------------|
----------------------------------------------------|
----------------------------------------------------|
--------------------------------------2--3--2--0----|
--2--3--2--0--------------2--3--2--0----------------|
--------------3-------------------------------------|


----------------------------|----------------------------|
----------------------------|----------------------------|
----------------------------|----------------------------|
-----10-10----9-------------|----------------------------|
--0M-------0M----0M-10-10---|--0M-5--0M-7--0M-2--3--2----|
----------------------------|----------------------------|


----------------------------|
----------------------------|
----------------------------|
-----0-----5-----0-----2----|
----------------------------|
--3M----3M----3M----3M------|


----------------------------------------------------|
----------------------------------------------------|
----------------------------------------------------|
----------------------------------------------------|
--2--3--2--0--------------2--3--2--0----------------|
--------------3b----------------------5b------------|


----------------------------|----------------------------|
----------------------------|----------------------------|
----------------------------|----------------------------|
-----10-10----9-------------|----------------------------|
--0M-------0M----0M-10-10---|--0M-5--0M-7--0M-2--3--2----|
----------------------------|----------------------------|


----------------------------|
----------------------------|
----------------------------|
-----0-----5-----0-----2----|
----------------------------|
--3M----3M----3M----3M------|


----------------------------------------------------|
----------------------------------------------------|
----------------------------------------------------|
--------------------------------------2--3--2--0----|
--2--3--2--0--------------2--3--2--0----------------|
--------------3b------------------------------------|


----------------------------|----------------------------|
----------------------------|----------------------------|
----------------------------|----------------------------|
-----10-10----9-------------|----------------------------|
--0M-------0M----0M-10-10---|--0M-5--0M-7--0M-2--3--2----|
----------------------------|----------------------------|


----------------------------|
----------------------------|
----------------------------|
-----0-----5-----0-----2----|
----------------------------|
--3M----3M----3M----3M------|


----------------------------------------------------|
----------------------------------------------------|
----------------------------------------------------|
----------------------------------------------------|
--2--3--2--0--------------2--3--2--0----------------|
--------------3b----------------------5b------------|


----------------------------|----------------------------|
----------------------------|----------------------------|
----------------------------|----------------------------|
-----10-10----9-------------|----------------------------|
--0M-------0M----0M-10-10---|--0M-5--0M-7--0M-2--3--2----|
----------------------------|----------------------------|


----------------------------|----------------|
----------------------------|----------------|
----------------------------|----------------|
-----0-----5-----0-----2----|----------------|
----------------------------|----------------|
--3M----3M----3M----3M------|----------------|


----------------------------------------------------|
----------------------------------------------------|
----------------------------------------------------|
--0-----0M-0M-0M----0-----0-----0-------------------|
--0-----0M-0M-0M----0-----0-----0-------------------|
--0-----0M-0M-0M----0-----0-----0-------------------|


----------------------------|
--------------1L-1L-1-------|
--------2L-2L-2L-2L-2-------|
----------------------------|
-----1-----1-----1L-1-------|
--------------------2--3L---|


----------------------------------------------------|
----------------------------------------------------|
----------------------------------------------------|
--------0M-0M-0M----0-----0-----0M----0M-0M----0M---|
--------0M-0M-0M----0-----0-----0M----0M-0M----0M---|
--3b----0M-0M-0M----0-----0-----0M----0M-0M----0M---|


----------------------------------------------------|
----------------------------------------------------|
----------------------------------------------------|
--0-----0M-0M-0M----------------0M-0M-0M------------|
--0-----0M-0M-0M----------------0M-0M-0M------------|
--0-----0M-0M-0M----------------0M-0M-0M------------|


----------------------------------------------------|
----------------------------------------------------|
----------------------------------------------------|
--0-----0M-0M-0M----0-----0-----0-------------------|
--0-----0M-0M-0M----0-----0-----0-------------------|
--0-----0M-0M-0M----0-----0-----0-------------------|


----------------------------|
--------------1L-1L-1-------|
--------2L-2L-2L-2L-2-------|
----------------------------|
-----1-----1-----1L-1-------|
--------------------2--3L---|


----------------------------------------------------|
----------------------------------------------------|
----------------------------------------------------|
--------0M-0M-0M----0-----0-----0M----0M-0M----0M---|
--------0M-0M-0M----0-----0-----0M----0M-0M----0M---|
--3b----0M-0M-0M----0-----0-----0M----0M-0M----0M---|


----------------------------------------------------|
----------------------------------------------------|
----------------------------------------------------|
--0-----0M-0M-0M----------------0M-0M-0M------------|
--0-----0M-0M-0M----------------0M-0M-0M------------|
--0-----0M-0M-0M----------------0M-0M-0M------------|


----------------------------|----------------------------|
----------------------------|----------------------------|
----------------------------|----------------------------|
--3--3--3--3--3--3--3--3----|--0--0--0--0--0--0--0--0----|
--3--3--3--3--3--3--3--3----|--0--0--0--0--0--0--0--0----|
--3--3--3--3--3--3--3--3----|--0--0--0--0--0--0--0--0----|


----------------------------|----------------------------|
----------------------------|----------------------------|
----------------------------|----------------------------|
--7--7--7--7--7--7--7--7----|--5--5--5--5--5--5--5--5----|
--7--7--7--7--7--7--7--7----|--5--5--5--5--5--5--5--5----|
--7--7--7--7--7--7--7--7----|--5--5--5--5--5--5--5--5----|


----------------------------|----------------------------|
----------------------------|----------------------------|
----------------------------|----------------------------|
--3--3--3--3--3--3--3--3----|--0--0--0--0--0--0--0--0----|
--3--3--3--3--3--3--3--3----|--0--0--0--0--0--0--0--0----|
--3--3--3--3--3--3--3--3----|--0--0--0--0--0--0--0--0----|


----------------------------|----------------------------|
----------------------------|----------------------------|
----------------------------|----------------------------|
--7--7--7--7--7--7--7--7----|--5--5--5--5--5--5--5--5----|
--7--7--7--7--7--7--7--7----|--5--5--5--5--5--5--5--5----|
--7--7--7--7--7--7--7--7----|--5--5--5--5--5--5--5--5----|


----------------------------|----------------------------|
----------------------------|----------------------------|
----------------------------|----------------------------|
--3--3--3--3--3--3--3--3----|--0--0--0--0--0--0--0--0----|
--3--3--3--3--3--3--3--3----|--0--0--0--0--0--0--0--0----|
--3--3--3--3--3--3--3--3----|--0--0--0--0--0--0--0--0----|


----------------------------|----------------------------|
----------------------------|----------------------------|
----------------------------|----------------------------|
--7--7--7--7--7--7--7--7----|--5--5--5--5--5--5--5--5----|
--7--7--7--7--7--7--7--7----|--5--5--5--5--5--5--5--5----|
--7--7--7--7--7--7--7--7----|--5--5--5--5--5--5--5--5----|


----------------------------|----------------------------|
----------------------------|----------------------------|
----------------------------|----------------------------|
--3--3--3--3--3--3--3--3----|--0--0--0--0--0--0--0--0----|
--3--3--3--3--3--3--3--3----|--0--0--0--0--0--0--0--0----|
--3--3--3--3--3--3--3--3----|--0--0--0--0--0--0--0--0----|


----------------------------|----------------------------|
----------------------------|----------------------------|
----------------------------|----------------------------|
--7--7--7--7--7--7--7--7----|--5--5--5--5--5--5--5--5----|
--7--7--7--7--7--7--7--7----|--5--5--5--5--5--5--5--5----|
--7--7--7--7--7--7--7--7----|--5--5--5--5--5--5--5--5----|


----------------------------|----------------------------|
----------------------------|----------------------------|
----------------------------|----------------------------|
--3--------3M-3--3M-3M-0L---|--0--0M----0M---------------|
--3--------3M-3--3M-3M-0L---|--0--0M----0M---------------|
--3--------3M-3--3M-3M-0L---|--0--0M----0M---------------|


----------------------------|----------------------------|
----------------------------|----------------------------|
----------------------------|----------------------------|
--7--------7M-7--7M-7M-5L---|--5--2M----2M---------------|
--7--------7M-7--7M-7M-5L---|--5--2M----2M---------------|
--7--------7M-7--7M-7M-5L---|--5--2M----2M---------------|


----------------------------|----------------------------|
----------------------------|----------------------------|
----------------------------|----------------------------|
--3--------3M-3--3M-3M-0L---|--0--0M----0M---------------|
--3--------3M-3--3M-3M-0L---|--0--0M----0M---------------|
--3--------3M-3--3M-3M-0L---|--0--0M----0M---------------|


----------------------------|----------------------------|
----------------------------|----------------------------|
----------------------------|----------------------------|
--7--------7M-7--7M-7M-5L---|--5--2M----2M---------------|
--7--------7M-7--7M-7M-5L---|--5--2M----2M---------------|
--7--------7M-7--7M-7M-5L---|--5--2M----2M---------------|


----------------------------|----------------------------|
----------------------------|----------------------------|
----------------------------|----------------------------|
--3--------3M-3--3M-3M-0L---|--0--0M----0M---------------|
--3--------3M-3--3M-3M-0L---|--0--0M----0M---------------|
--3--------3M-3--3M-3M-0L---|--0--0M----0M---------------|


----------------------------|----------------------------|
----------------------------|----------------------------|
----------------------------|----------------------------|
--7--------7M-7--7M-7M-5L---|--5--2M----2M---------------|
--7--------7M-7--7M-7M-5L---|--5--2M----2M---------------|
--7--------7M-7--7M-7M-5L---|--5--2M----2M---------------|


----------------------------|----------------------------|
----------------------------|----------------------------|
----------------------------|----------------------------|
--3--------3M-3--3M-3M-0L---|--0--0M----0M---------------|
--3--------3M-3--3M-3M-0L---|--0--0M----0M---------------|
--3--------3M-3--3M-3M-0L---|--0--0M----0M---------------|


----------------------------|----------------------------|-------|-------|
----------------------------|----------------------------|-------|-------|
----------------------------|----------------------------|-------|-------|
--7--------7M-7--7M-7M-5L---|--5--2M----2M---------------|--0L---|--0----|
--7--------7M-7--7M-7M-5L---|--5--2M----2M---------------|--0L---|--0----|
--7--------7M-7--7M-7M-5L---|--5--2M----2M---------------|--0L---|--0----|


----------------------------|----------------------------|-------|-------|
----------------------------|----------------------------|-------|-------|
----------------------------|----------------------------|-------|-------|
--0--0M-0M-0M-0M-0M-0M-0L---|--0M-0M----0M----0M----0M---|--0L---|--0----|
--0--0M-0M-0M-0M-0M-0M-0L---|--0M-0M----0M----0M----0M---|--0L---|--0----|
--0--0M-0M-0M-0M-0M-0M-0L---|--0M-0M----0M----0M----0M---|--0L---|--0----|


----------------------------|----------------------------|
----------------------------|----------------------------|
----------------------------|----------------------------|
--0--0M-0M-0M-0M-0M-0M-0L---|--0M-0M---------------------|
--0--0M-0M-0M-0M-0M-0M-0L---|--0M-0M---------------------|
--0--0M-0M-0M-0M-0M-0M-0L---|--0M-0M---------------------|


----------------------------------------------------|
----------------------------------------------------|
----------------------------------------------------|
--0--0M----0M----0M-------------0M-0M----0M----0M---|
--0--0M----0M----0M-------------0M-0M----0M----0M---|
--0--0M----0M----0M-------------0M-0M----0M----0M---|


----------------------------------------------------|
----------------------------------------------------|
----------------------------------------------------|
--3--0M----0M----0M-------0M-0M-------0M-0M---------|
--0--0M----0M----0M-------0M-0M-------0M-0M---------|
--0--0M----0M----0M-------0M-0M-------0M-0M---------|


----------------------------------------------------|
----------------------------------------------------|
----------------------------------------------------|
--0--0M----0M----0M-------------0M-0M----0M----0M---|
--0--0M----0M----0M-------------0M-0M----0M----0M---|
--0--0M----0M----0M-------------0M-0M----0M----0M---|


----------------------------------------------------|
----------------------------------------------------|
----------------------------------------------------|
--3--0M----0M----0M-------0M-0M---------------------|
--0--0M----0M----0M-------0M-0M---------------------|
--0--0M----0M----0M-------0M-0M---------------------|


----------------------------------------------------|
----------------------------------------------------|
----------------------------------------------------|
--0--0M----0M----0M-------------0M-0M----0M----0M---|
--0--0M----0M----0M-------------0M-0M----0M----0M---|
--0--0M----0M----0M-------------0M-0M----0M----0M---|


----------------------------------------------------|
----------------------------------------------------|
----------------------------------------------------|
--3--0M----0M----0M-------0M-0M-------0M-0M---------|
--0--0M----0M----0M-------0M-0M-------0M-0M---------|
--0--0M----0M----0M-------0M-0M-------0M-0M---------|


----------------------------------------------------|
----------------------------------------------------|
----------------------------------------------------|
--0--0M----0M----0M-------------0M-0M----0M----0M---|
--0--0M----0M----0M-------------0M-0M----0M----0M---|
--0--0M----0M----0M-------------0M-0M----0M----0M---|


----------------------------------------------------|
----------------------------------------------------|
----------------------------------------------------|
--3--0M----0M----0M-------0M-0M----0M-0M-0M---------|
--0--0M----0M----0M-------0M-0M----0M-0M-0----------|
--0--0M----0M----0M-------0M-0M----0M-0M-0M---------|


----------------------------|----------------------------|
----------------------------|----------------------------|
----------------------------|----------------------------|
--3--3--3--3--3--3--3--3----|--0--0--0--0--0--0--0--0----|
--3--3--3--3--3--3--3--3----|--0--0--0--0--0--0--0--0----|
--3--3--3--3--3--3--3--3----|--0--0--0--0--0--0--0--0----|


----------------------------|----------------------------|
----------------------------|----------------------------|
----------------------------|----------------------------|
--7--7--7--7--7--7--7--7----|--5--5--5--5--5--5--5--5----|
--7--7--7--7--7--7--7--7----|--5--5--5--5--5--5--5--5----|
--7--7--7--7--7--7--7--7----|--5--5--5--5--5--5--5--5----|


----------------------------|----------------------------|
----------------------------|----------------------------|
----------------------------|----------------------------|
--3--3--3--3--3--3--3--3----|--0--0--0--0--0--0--0--0----|
--3--3--3--3--3--3--3--3----|--0--0--0--0--0--0--0--0----|
--3--3--3--3--3--3--3--3----|--0--0--0--0--0--0--0--0----|


----------------------------|----------------------------|
----------------------------|----------------------------|
----------------------------|----------------------------|
--7--7--7--7--7--7--7--7----|--5--5--5--5--5--5--5--5----|
--7--7--7--7--7--7--7--7----|--5--5--5--5--5--5--5--5----|
--7--7--7--7--7--7--7--7----|--5--5--5--5--5--5--5--5----|


----------------------------|----------------------------|
----------------------------|----------------------------|
----------------------------|----------------------------|
--3--3--3--3--3--3--3--3----|--0--0--0--0--0--0--0--0----|
--3--3--3--3--3--3--3--3----|--0--0--0--0--0--0--0--0----|
--3--3--3--3--3--3--3--3----|--0--0--0--0--0--0--0--0----|


----------------------------|----------------------------|
----------------------------|----------------------------|
----------------------------|----------------------------|
--7--7--7--7--7--7--7--7----|--5--5--5--5--5--5--5--5----|
--7--7--7--7--7--7--7--7----|--5--5--5--5--5--5--5--5----|
--7--7--7--7--7--7--7--7----|--5--5--5--5--5--5--5--5----|


----------------------------|----------------------------|
----------------------------|----------------------------|
----------------------------|----------------------------|
--3--3--3--3--3--3--3--3----|--0--0--0--0--0--0--0--0----|
--3--3--3--3--3--3--3--3----|--0--0--0--0--0--0--0--0----|
--3--3--3--3--3--3--3--3----|--0--0--0--0--0--0--0--0----|


----------------------------|----------------------------|-------|-------|
----------------------------|----------------------------|-------|-------|
----------------------------|----------------------------|-------|-------|
--7--7--7--7--7--7--7--7----|--5--5--5--5--5--5--5--5----|--3----|--5----|
--7--7--7--7--7--7--7--7----|--5--5--5--5--5--5--5--5----|--3----|--5----|
--7--7--7--7--7--7--7--7----|--5--5--5--5--5--5--5--5----|--3----|--5----|


----------------------------------------------------|
----------------------------------------------------|
----------------------------------------------------|
--16-15-14-13-12-11-10-9--8--7--6--5--4--3--2--1----|
--16-15-14-13-12-11-10-9--8--7--6--5--4--3--2--1----|
----------------------------------------------------|


----------------------------|----------------------------|
----------------------------|----------------------------|
----------------------------|----------------------------|
-----10-10----9-------------|----------------------------|
--0M-------0M----0M-10-10---|--0M-5--0M-7--0M-2--3--2----|
----------------------------|----------------------------|


----------------------------|
----------------------------|
----------------------------|
-----0-----5-----0-----2----|
----------------------------|
--3M----3M----3M----3M------|


----------------------------------------------------|
----------------------------------------------------|
----------------------------------------------------|
----------------------------------------------------|
--2--3--2--0--------------2--3--2--0----------------|
--------------3b----------------------5b------------|


----------------------------|----------------------------|
----------------------------|----------------------------|
----------------------------|----------------------------|
-----10-10----9-------------|----------------------------|
--0M-------0M----0M-10-10---|--0M-5--0M-7--0M-2--3--2----|
----------------------------|----------------------------|


----------------------------|
----------------------------|
----------------------------|
-----0-----5-----0-----2----|
----------------------------|
--3M----3M----3M----3M------|


----------------------------------------------------|
----------------------------------------------------|
----------------------------------------------------|
--------------------------------------2--3--2--0----|
--2--3--2--0--------------2--3--2--0----------------|
--------------3b------------------------------------|


----------------------------|----------------------------|
----------------------------|----------------------------|
----------------------------|----------------------------|
-----10-10----9-------------|----------------------------|
--0M-------0M----0M-10-10---|--0M-5--0M-7--0M-2--3--2----|
----------------------------|----------------------------|


----------------------------|
----------------------------|
----------------------------|
-----0-----5-----0-----2----|
----------------------------|
--3M----3M----3M----3M------|


----------------------------------------------------|
----------------------------------------------------|
----------------------------------------------------|
----------------------------------------------------|
--2--3--2--0--------------2--3--2--0----------------|
--------------3b----------------------5b------------|


----------------------------|----------------------------|
----------------------------|----------------------------|
----------------------------|----------------------------|
-----10-10----9-------------|----------------------------|
--0M-------0M----0M-10-10---|--0M-5--0M-7--0M-2--3--2----|
----------------------------|----------------------------|


----------------------------|
----------------------------|
----------------------------|
-----0-----5-----0-----2----|
----------------------------|
--3M----3M----3M----3M------|


----------------------------------------------------|
----------------------------------------------------|
----------------------------------------------------|
--------------------------------------2--3--2--0----|
--2--3--2--0--------------2--3--2--0----------------|
--------------3b------------------------------------|


----------------------------------------------------|-------|-------||
----------------------------------------------------|--1L---|--1----||
----------------------------------------------------|--2L---|--2----||
--------------------------------------2--3--2--0----|--2L---|--2----||
--2--3--2--0--------------2--3--2--0----------------|--0L---|--0----||
--------------5b------------------------------------|-------|-------||
Добавлено: 08.10.2013
Другие материалы по этой песне:
  • Аккорды и текст

Страница создана 08.10.2013
http://primanota.ru/bury-tomorrow/an-honourable-regin-chords.htm
Привет, Гость.
Предлагаем пройти революционный курс по гитаре.
Подарок от PrimaNota.Ru, забирай!