PrimaNota.ru - самый крупный в мире бесплатный архив песенных текстов, аккордов, табулатур и нот


Buckethead - Three Fingers - текст песни, таба, видео

Регистрация Запомнить меня
Войти через:  Facebook Google Twitter Vk Yandex Mail.ru

Buckethead - Three Fingers - текст песни, таба, видео

Печатать
Просмотров: 135
Уроки эстрадного вокала в Санкт-Петербурге
This is off the "Enter The Chicken" Album. Saul Williams is singing.

Intro:
e---15-15---14-14h15----14-14---15-15h14---------------------------------|
b------------------------------------------------------------------------|
g------------------------------------------------------------------------| X2
d------------------------------------------------------------------------|
a------------------------------------------------------------------------|
E------------------------------------------------------------------------|

Part 1 Lyrics:    Three fingers on a swollen hand beside a dented          garbage can a 
man staring
at something only he can see
I spotted him like night
sky plotted and star struck
sits at alone, eats at home
rafted in a sea of blackness
He rattles his cup just enough to call your bluff
you can't pretend you didn't see him
catch his smile in the rear view
out of the blue his guitar entered hard
with three fingers he plays
praise what he says might scare you

Part 1 Tabs:
e----------------------------------------------------------------------------|
b----------------------------------------------------------------------------|
g----------------------------------------------------------------------------|
d-4--xx--3--xx--4--xx--3--xx--4--xx--3--xx--4--xx--3--xx--4--xx--3--xx-------|each
a-4--xx--3--xx--2--xx--1--xx--2--xx--1--xx--2--xx--1--xx--2--xx--1--xx-------|note
E-2--xx--1--xx--2--xx--1--xx--2--xx--1--xx--2--xx--1--xx--2--xx--1--xx--1----|2X

Part 2 :44 Heavy Distortion                           ooowwwwhhhh.....
e---------------------------------------------------------------------------|
b---------------------------------------------------------------------------|
g-----------------99-----------------------------------------9--------------|
d--------7b-5-7-9------------7b-5-7-5------------7-5-7-5h75-----------------|
a-7-55-7--------------7-55-7----------77--7-55-7------------5---7-55-7------|
E---------------------------------------------------------------------------|

e-------------|
b-------------|
g-------------|
d-7b-5-7-5----|
a----------77-|
E-------------|

Part 3:
e---------------------------------------------------------------------------|
b---------------------------------------------------------------------------|
g---------------------------------------------------------------------------|
d---------------------------------------------------------------------------|
a-22-5-225-5-22-5-225--22-5-225-5-22-5-225----------------------------------|
E-oo-3-003-3-00-3-003--oo-3-003-3-00-3-003----------------------------------|

Repeat Part 1    Three fingers on a swollen....


Part 4: Very similair to part 2   No distotion
e------------------------------------------------|      Get that thing back
b------------------------------------------------|      wha... I will kill you
g-----------------99-----------------------------|      I will kill you  You know
d--------7b-5-7-9------------7b-5-7-5------------|      i will  You better not cross
a-7-55-7--------------7-55-7----------77---------|      me
E------------------------------------------------|X2

Part 5: Heavy Distortion
e------------------------------------------------------| You better not you
b------------------------------------------------------| better not cross me
g-10b-10-8-------------8-10b-10b-10-8-------------8-10-| no no you better not
d-9b-------8-10-8-10-8-------9b-------8-10-8-10-8------| cross me no no no no
a------------------------------------------------------|
E------------------------------------------------------|REAPEAT

Part 6: If you have a pedal or something that can take everything down an octave,
use it at this part.
e-----------------------------------| Dont cross me   dont cross your
b-----------------------------------| heart and hope or dream or fear or
g-----------------------------------| pray i say    i see   i can see! you
d--------------5-5--------------5-5-| better not cross this street in front of
a-22--22--22---5-5-22--22--22---5-5-| me boy.
E-00--00--00---3-3-00--00--00---3-3-| REPEAT

Repeat Part 1      Three fingers on a swollen....

Part 7: Same thing with the pedal or other but bring everything an octave up.     Right 
he says "Sea of Blackness" you come in.

        Tap Everything       Heavy Distortion
e--------15-17-17-17-17-17hold-18-16-15-14-13--------------------------------|
b-------15-16-16-16-16-16-----16-15-14-13-12---------------------------------|
g------13-14-14-14-14-14-----14-14-13-12-11-------19-16-17-19-16-19-16-19-17-|
d-9b-------------------------------------------------------------------------|
a----------------------------------------------------------------------------|
E----------------------------------------------------------------------------|
The tapping part was tough but basically i went chromatically downward on each string.

Outro: The little squeeky notes are taken up an octave on the pedal
e-17-17--16-16--17-17--16-16-17-17--16-16-----------------------------------|
b---------------------------------------------------------------------------|
g---------------------------------------------------------------------------|
d-----------------------------------------------4---3-----------------------|
a-----------------------------------------------4---3-----------------------|
E-----------------------------------------------2---1-----------------------|

 FIN     Rate if you like!
Добавлено: 30.05.2012
Другие материалы по этой песне:
  • Аккорды и текст

Страница создана 30.05.2012
http://primanota.ru/buckethead/three-fingers-chords.htm
Привет, Гость.
Предлагаем пройти революционный курс по гитаре.
Подарок от PrimaNota.Ru, забирай!