PrimaNota.ru - самый крупный в мире бесплатный архив песенных текстов, аккордов, табулатур и нот


Buckethead - Van Blues - таба, видео

Регистрация Запомнить меня
Войти через:  Facebook Google Twitter Vk Yandex Mail.ru

Buckethead - Van Blues - таба, видео

Печатать
Просмотров: 124
-------------------------------------------------------------------------------
                             Van Blues - Buckethead
-------------------------------------------------------------------------------
Tabbed by: Bambi Slaughter
Email:-

Tuning:standard (EBGDAE)

This song is featured on the Secret Recipe DVD as a short segment that i decided to tab 
because its easy and fun.

(Repeat x10)
e|----------------0-0-----------------|
b|----------------1-1-----------------|
g|----------------2-2-----------------|
d|----------------2-2-----------------|
a|---------2---3--3-3-----------------|
e|-----3------------------------------|

 Then:                                              \/(repeat this part x8)
e|---------------------------|---------------------|
b|--------------------2-2----|-------------2-2-----|
g|--------------------2-2----|-------------2-2-----|
d|--------------------2-2----|-------------2-2-----|
a|--------2/3---0*-----------|--------0------------|
e|-----3---------------------|-0--3----------------|


(on third time go back to this once, then go back to above part)
e|------------------------------------|
b|----------------2-2-----------------|
g|----------------2-2-----------------|
d|----------------2-2-----------------|
a|--------2/3--0----------------------|
e|-----3------------------------------|


(repeat x10)

e|----------------0-0-----------------|
b|----------------1-1-----------------|
g|----------------2-2-----------------|
d|----------------2-2-----------------|
a|---------2---3--3-3-----------------|
e|-----3------------------------------|

                                                (repeat x8)
e|---------------------------|---------------------|
b|--------------------2-2----|-------------2-2-----|
g|--------------------2-2----|-------------2-2-----|
d|--------------------2-2----|-------------2-2-----|
a|--------2---0--------------|--------0------------|
e|-----3---------------------|-0--3----------------|


(repeat x8)
e|----------------0-0-----------------|
b|----------------1-1-----------------|
g|----------------2-2-----------------|
d|----------------2-2-----------------|
a|--------2----3--3-3-----------------|
e|-----3------------------------------|


                                           (repeat x8)
e|---------------------------|---------------------|
b|--------------------2-2----|-------------2-2-----|
g|--------------------2-2----|-------------2-2-----|
d|--------------------2-2----|-------------2-2-----|
a|--------2/3---0------------|--------0------------|
e|-----3---------------------|-0--3----------------|


Chili Bitch…Chili Bitch…. (repeat x4, on fourth time slowly pick through the C chord)
e|----------------0-0-----------------|
b|----------------1-1-----------------|
g|----------------2-2-----------------|
d|----------------2-2-----------------|
a|--------2---3---3-3-----------------|
e|-----3------------------------------|

Then at the end buckethead just uses his right hand and hammers on the 12th fret on the 
string a few times as a little retarded finale I guess.

| /  slide up
| \  slide down
| h  hammer-on
| p  pull-off
| ~  vibrato
| +  harmonic
| x  Mute note
===============================================================================
Добавлено: 29.06.2012
Другие материалы по этой песне:
  • Аккорды и текст

Страница создана 29.06.2012
http://primanota.ru/buckethead/van-blues-chords.htm
Привет, Гость.
Предлагаем пройти революционный курс по гитаре.
Подарок от PrimaNota.Ru, забирай!