PrimaNota.ru - самый крупный в мире бесплатный архив песенных текстов, аккордов, табулатур и нот


Buckethead - Towel In The Kitchen - таба, видео

Регистрация Запомнить меня
Войти через:  Facebook Google Twitter Vk Yandex Mail.ru

Buckethead - Towel In The Kitchen - таба, видео

Печатать
Просмотров: 120
Yet another great song by Big B.
Tuning: 1/2 Step down.


eb------------------------------------|
Bb------------------------------------|
Gb---------------------------12/14-12-|    x3
Db--14-12-14-12-14-12-14-12--12/14-12-|
Ab--14-12-14-12-14-12-14-12--10/12-10-|
Eb--12-10-12-10-12-10-12-10-----------|


eb-----------------------|
Bb-----------------------|
Gb-----------------------|
Db--14-12-14-12-14--8--5-|
Ab--14-12-14-12-14--8--5-|
Eb--12-10-12-10-12--6--3-|


eb------------------------------------|
Bb------------------------------------|
Gb---------------------------12/14-12-|    x3
Db--14-12-14-12-14-12-14-12--12/14-12-|
Ab--14-12-14-12-14-12-14-12--10/12-10-|
Eb--12-10-12-10-12-10-12-10-----------|


eb-----------------------|
Bb-----------------------|
Gb-----------------------|
Db--14-12-14-12-14--8--5-|
Ab--14-12-14-12-14--8--5-|
Eb--12-10-12-10-12--6--3-|


eb---------------------------------------|
Bb---------------------------------------|
Gb----------------7h9--------------------|    x6
Db------7h9---------------7h9------------|
Ab---------------------------------------|
Eb--0-0-----0-0-3-----0-0-----0-0-6~-----|
    . .     . .       . .     . .

eb----------------------------|
Bb----------------------------|
Gb--7/9-7---------------------|    x8
Db--7/9-7---------------------|
Ab--5/7-5---------------------|
Eb---------6h7p6h7--5h6p5h6-3-|


eb------------------------------------------------------------------|
Bb------------------------------------------------------------------|
Gb------------------------------------------------------------------|    x8
Db------------------------------------------------------------------|
Ab--7-7-7-7-7-7-7-7-7-7-7-7-7-7-7-7-7-5-3-5-3-2-3-2-0-2-3-2-3-5-3-5-|
Eb------------------------------------------------------------------|


eb--10----10----10----10----|
Bb--------------------------|
Gb-----12----12----12----12-|    x2
Db--------------------------|
Ab--------------------------|
Eb--------------------------|


eb--5---5---5---5---|
Bb------------------|
Gb----7---7---7---7-|    x2
Db------------------|
Ab------------------|
Eb------------------|


eb--10----10----10----10----|
Bb--------------------------|
Gb-----12----12----12----12-|    x2
Db--------------------------|
Ab--------------------------|
Eb--------------------------|


eb--5---5---5---5---5---5-0---0---|
Bb--------------------------3---3-|
Gb----7---7---7---7---7-----------|
Db--------------------------------|
Ab--------------------------------|
Eb--------------------------------|


eb--10----10----10----10----|
Bb--------------------------|
Gb-----12----12----12----12-|    x2
Db--------------------------|
Ab--------------------------|
Eb--------------------------|


eb--5---5---5---5---5---5-0---0---|
Bb--------------------------3---3-|
Gb----7---7---7---7---7-----------|
Db--------------------------------|
Ab--------------------------------|
Eb--------------------------------|


eb--10----10----10----10-------|
Bb-----------------------------|
Gb-----12----12----12----12----|
Db---------------------------2-|
Ab---------------------------2-|
Eb---------------------------0-|
Добавлено: 10.05.2012
Другие материалы по этой песне:

Страница создана 10.05.2012
http://primanota.ru/buckethead/towel-in-the-kitchen-chords.htm
Привет, Гость.
Предлагаем пройти революционный курс по гитаре.
Подарок от PrimaNota.Ru, забирай!