PrimaNota.ru - самый крупный в мире бесплатный архив песенных текстов, аккордов, табулатур и нот


Buckethead - Mr Sandman - таба, видео

Регистрация Запомнить меня
Войти через:  Facebook Google Twitter Vk Yandex Mail.ru

Buckethead - Mr Sandman - таба, видео

Печатать
Просмотров: 353
Mr. Sandman
by Chet Atkins
played live by Buckethead

tab contributed by 'Farmer Bob'

E||---------------------|-----------------4----|--2----0--------------|
B||---------------------|------------5---------|----------------------|
G||---------------------|-------6--------------|------------6---------|
D||------2----4----6----|--7-------------------|-----------------7/---|
A||---------------------|--0-------------------|----------------------|
E||---------------------|----------------------|----------------------|

-----------------------|--------------------|-----------------4----|
------------7----10----|--9-----------------|------------5---------|
-------7---------------|--7-----------------|-------6--------------|
--9--------------------|--9-----------------|--7-------------------|
-----------------------|--------------------|--0-------------------|
-----------------------|-----------0--------|----------------------|

-------0--------------|-----------------------|------------0---------|
--7-------------------|------------7----10----|--9--------------7----|
------------6---------|-------7---------------|--7-------------------|
-----------------7/---|--9--------------------|--9-------------------|
----------------------|-----------------------|----------------------|
----------------------|-----------------------|-------0--------------|

--4--------------------|----------------------|--4----4---------4----|
----------7------------|----------------------|--7---------7---------|
-------6----------6----|-------6---------6----|--5-------------------|
-------7----------7----|-------7---------7----|-------4---------4----|
--0--------------------|--0-------------------|------------6---------|
-------------0---------|------------0---------|--4-------------------|

----------------------|-------5----5----4----|--5-------4------------|
----------------------|-------4---------4----|-------0----------0----|
----------------------|-------4---------4----|-----------------------|
----------------------|-------3---------3----|-------3----------3----|
-----------------3----|--4-------------------|--4--------------------|
--4----4----6---------|------------4---------|-------------4---------|

----------------------|---------------------|-------4----4----2----|
--3----3----2----3----|---------------------|-------2---------2----|
--3----3----3----3----|---------------------|-------2---------2----|
-------2---------2----|---------------------|-------1---------1----|
------------4---------|----------------1----|--2-------------------|
--2-------------------|------2----4---------|------------2---------|

--4-------2------------|----------------------|-------0--------------|
-----------------------|--2----2----0----2----|----------------------|
-------2----------2----|--1----1----1----1----|----------------------|
-------1----------1----|-------0---------0----|----------------------|
--2--------------------|------------2---------|----------------------|
-------------2---------|--0-------------------|--0---------2----4----|

-------7----7----5----|--7-------5------------|--8---------8---------|
----------------------|-----------------------|--8---------8---------|
----------------------|-------6----------6----|--8---------8---------|
-------7---------7----|-------7----------7----|-------7---------7----|
--0-------------------|--0--------------------|--8-------------------|
------------0---------|-------------0---------|------------8---------|

--9----7-----|
--7----7-----|
--7----7-----|
-------6-----|
--7----------|
-------------|

I got this tab by a friend, I play it a little different but as far as I know this is 
an official tab book.
I am sorry I don't know the name of the person who wrote the tab. The tab is great, I 
this song! ~ 'Farmer Bob'
Добавлено: 10.07.2012
Другие материалы по этой песне:

Страница создана 06.06.2012
http://primanota.ru/buckethead/mr-sandman-chords.htm
Привет, Гость.
Предлагаем пройти революционный курс по гитаре.
Подарок от PrimaNota.Ru, забирай!