PrimaNota.ru - самый крупный в мире бесплатный архив песенных текстов, аккордов, табулатур и нот


Buckethead - Mrs Beasley - таба, видео

Регистрация Запомнить меня
Войти через:  Facebook Google Twitter Vk Yandex Mail.ru

Buckethead - Mrs Beasley - таба, видео

Печатать
Просмотров: 137
MRS. BEASLEY

Tabbed by: Aaron McMahon
Email: otakugeek@hotmail.com


Band: Giant Robot (Buckethead)
Album: Giant Robot [NTT]
Song: Mrs. Beasley

Tuning: Standard



e|--------------------------------------------------------------------|
B|------------------13------------13----------------------------------|
G|--14--14-14----14------14-14----------------------------------------|
D|------------------------------------17-17-15-14---------------------|
A|-------------------------------------------------15-----------------|
E|----------------------------------------------------15-15-15h17-----|

e|-------------------------12-12b(13)r-12-12-------8-8b(10)-(10)-(10)-(10)-(10)--|
B|------6-8-8b(10)------10----------------------10-------------------------------|
G|----5--------------------------------------------------------------------------|
D|--7----------------------------------------------------------------------------|
A|-------------------------------------------------------------------------------|
E|-------------------------------------------------------------------------------|

e|-----------------------------------------------------------|
B|--8b(10)-8-6-8(10)---8p6-6p5--5----------------------------|
G|--------------------------------5--5\2--2p0----------------|
D|---------------------------------------------5h7-7b(8)r----|
A|-----------------------------------------------------------|
E|-----------------------------------------------------------|

e|-----------------------8--------------------8--------------|
B|----------6-8-8b(10)rb---8b(10)r-6-8-8b(10)---8b(10)r-6----|
G|------5-7--------------------------------------------------|
D|--5-7------------------------------------------------------|
A|-----------------------------------------------------------|
E|-----------------------------------------------------------|

e|--20----20b(22)---20b(22)---20b(22)r--20-18-17b(19)--r-17-17-----|
B|-----------------------------------------------------------------|
G|-----------------------------------------------------------------|
D|-----------------------------------------------------------------|
A|-----------------------------------------------------------------|
E|-----------------------------------------------------------------|

e|--15b(17)r-p13------------------------------------------------------|
B|---------------15-15-13-----------------------------------13b(14)---|
G|------------------------14\12--10----10-12-12b(14)r-12-10-----------|
D|----------------------------------12--------------------------------|
A|--------------------------------------------------------------------|
E|--------------------------------------------------------------------|

e|-----13-15b(16)rb(17)r----------13---------16-15-13-15-15b(16)-13----------|
B|--15-------------------15-13-15----15---15------------------------15-15----|
G|---------------------------------------------------------------------------|
D|---------------------------------------------------------------------------|
A|---------------------------------------------------------------------------|
E|---------------------------------------------------------------------------|

e|---------------------------------------------------------------------------|
B|-----------------------------------(15)pbr13--13b(15)--13b(15)rb--13b(15)--|
G|--10---10--9---------------------------------------------------------------|
D|-------------10------------------------------------------------------------|
A|----------------10-12b(13)-12----------------------------------------------|
E|---------------------------------------------------------------------------|

e|-------------------------------------------------------------|
B|--15-17-17b(18)-17----------------------17b(18)r-------------|
G|--------------------14-17-17b(18)-17-------------14-17-17----|
D|-------------------------------------------------------------|
A|-------------------------------------------------------------|
E|-------------------------------------------------------------|

e|--20--20-20--20b(22)-(22)-(22)--20(22)-20-20------|
B|--------------------------------------------------|
G|--------------------------------------------------|
D|--------------------------------------------------|
A|--------------------------------------------------|
E|--------------------------------------------------|

e|--20-----20\13--12--------------------------------------|
B|-------------------10/13--------------------------------|
G|--------------------------10\9--------------------------|
D|-------------------------------10-----------------------|
A|----------------------------------10-12b(13)r-12-12-----|
E|--------------------------------------------------------|

e|---------------------------------------------------------------------------|
B|--------------------------------------------5-6-8-10b(11)--10-10--10-10-10-|
G|--------10-9-----------------------9h10-9-7--------------------------------|
D|--10-12------12-10--10h12----10-12-----------------------------------------|
A|---------------------------------------------------------------------------|
E|---------------------------------------------------------------------------|

e|--------------10-10-10-8-8-6-6------------------------------|
B|--10-10-10-10------------------8-8b(10)---------------------|
G|--------------------------------------------5tr7------------|
D|--------------------------------------------------7-5-3-0---|
A|------------------------------------------------------------|
E|------------------------------------------------------------|

e|-----------------8b(9)------------------8(9)---10-13-13b(14)r-15b(17)------|
B|------6-8b(9)r-6--------------6-8b(9)-6------------------------------------|
G|--5-7---------------------5-7----------------------------------------------|
D|---------------------------------------------------------------------------|
A|---------------------------------------------------------------------------|
E|---------------------------------------------------------------------------|

e|---------------------20---\13-12-13p12-13p12-13--20-20b(22)-(22)-(22)-(22)-(22)-(22)-(22)--|
B|--15p13-15p13h15---------------------------------------------------------------------------|
G|-------------------------------------------------------------------------------------------|
D|-------------------------------------------------------------------------------------------|
A|-------------------------------------------------------------------------------------------|
E|-------------------------------------------------------------------------------------------|

e|--20-20---------5-8------------------------------|
B|--------------------8------8-6-------------------|
G|-------------------------------7-5---------------|
D|-----------------------------------7-5-3tr5------|
A|-------------------------------------------------|
E|-------------------------------------------------|

e|----------------------------------------------------------------------------------------|
B|--8-8-8------------------------------------------------------------------------10-10----|
G|-----------10-9-10-9-7-------10-9-10-9-10-9--12b(14)-12b(14)-12b(14)--14-12-14----------|
D|-----------------------10------------------------------------------------------------12-|
A|----------------------------------------------------------------------------------------|
E|----------------------------------------------------------------------------------------|

e|--------------12-13-12-12---------------12-13-12-12---12-13--20----20-------20-20b(22)-|
B|--------13-15---------------------13-15-------------------------17----17-18------------|
G|--12-14---------------------12-14------------------------------------------------------|
D|---------------------------------------------------------------------------------------|
A|---------------------------------------------------------------------------------------|
E|---------------------------------------------------------------------------------------|

e|--20-20-----13-------13-12------------------------13-12-----------------------|
B|---------------15-13--------15-13-----------------------15-13-----------------|
G|----------------------------------14-12--14-------------------14-12--14-------|
D|--------------------------------------------12--------------------------12----|
A|------------------------------------------------------------------------------|
E|------------------------------------------------------------------------------|

e|--13-12-----------------------|
B|--------15-13-----------------|
G|--------------14-12--14-------|
D|------------------------12----|
A|------------------------------|
E|------------------------------|



| tr trill
| b  bend
| () bend note to
| /  slide up
| \  slide down
| h  hammer-on
| p  pull-off
| ~  vibrato
| +  harmonic
| x  Mute note
===============================================================================
Добавлено: 29.06.2012
Другие материалы по этой песне:

Страница создана 07.06.2012
http://primanota.ru/buckethead/mrs-beasley-chords.htm
Привет, Гость.
Предлагаем пройти революционный курс по гитаре.
Подарок от PrimaNota.Ru, забирай!