PrimaNota.ru - самый крупный в мире бесплатный архив песенных текстов, аккордов, табулатур и нот


Buckethead - I Come In Peace - текст песни, таба, видео

Регистрация Запомнить меня
Войти через:  Facebook Google Twitter Vk Yandex Mail.ru

Buckethead - I Come In Peace - текст песни, таба, видео

Печатать
Просмотров: 270
once again this is perfect, any suggestions or requests email me at jasonthe13th@hotmail.co.uk


Intro
E|----12--9--12--------12-10-9-----12--9--12--------9-14-16-|
B|10-------------10------------10-------------10------------|
G|----------------------------------------------------------|
D|----------------------------------------------------------|
A|----------------------------------------------------------|
E|----------------------------------------------------------|

backing to intro
E|----------------------------------------------------------|
B|--------5----------------------------2--------------------|
G|------6---6------------------------2---2------------------|
D|----9-------9--------------------6-------6----------------|
A|--7-----------7----------------4-----------4--------------|
E|5---------------5------------2---------------2------------|

E|17~~-----------------16-17-16-|
B|------------------------------|
G|------------------------------|
D|------------------------------|
A|------------------------------|
E|------------------------------|
|
|
E|------------------------------|
B|------------10----------------|
G|---------11----11-------------|
D|------14----------14----------|
A|---12----------------12-------|
E|10----------------------10----|

BOOM....BOOM....

E|--------------|
B|--------------|
G|--------------|
D|--------------|
A|--------4-----|
E|5-3-6-3-2-----| (hard to tell if this is right, BH palm mutes it so much)

Fill 1 T T T T T
E|------------------------------------------|
B|------------------------------------------|
G|------------------------------------------|
D|-------4(16)~---------------4(16)~--------|
A|--------------4(14)~----------------------|
E|---------------------2(14)~--------2(16)~-|

Fill 2(!) T T T T T T T T T T T T T T T
E|-----------9h13h17h21p17p13p9\8h12h16h20h16p12p8\7h11h15h19p15p11p7\6h10h14h18p14p10p6-----------|
B|--------10----------------------------------------------------------------------------h15h19p15--|
G|------10-----------------------------------------------------------------------------------------|
D|----11-------------------------------------------------------------------------------------------|
A|8h12---------------------------------------------------------------------------------------------|
E|-------------------------------------------------------------------------------------------------|

T T T T T T
E|------------------------------------------------------------------------------|
B|p11p7\6h10h14h18p14p10p6\5h9h13h17p13p9p5-------------------------------------|
G|-----------------------------------------h13h17p13p9p5(bend this up a little)-|
D|------------------------------------------------------------------------------|
A|------------------------------------------------------------------------------|
E|------------------------------------------------------------------------------|

Chorus
E|--------------------------------|
B|--------------------------------|
G|--------------------------------|
D|--------------------------------|
A|--------4-4-----4-4-----4-4-----|
E|5-3-6-3-2-2-2-2-2-2-2-2-2-2-2-2-|

Drum Fill
E|------------------------|--|
B|------------------------|--|
G|------------------------|--| HAHAHAHAHAHA!!!
D|------5~----------7~----|--|
A|4~----3~----6~----5~----|4-|
E|2~----------4~----------|2-|

Death Metal Outro
E|-----------------|
B|-----------------|
G|-----------------|
D|-----------------|
A|2-4-2-4----------|
E|0-2-0-2-22222222-|
Добавлено: 17.05.2012
Другие материалы по этой песне:

Страница создана 17.05.2012
http://primanota.ru/buckethead/i-come-in-peace-chords.htm
Привет, Гость.
Предлагаем пройти революционный курс по гитаре.
Подарок от PrimaNota.Ru, забирай!