PrimaNota.ru - самый крупный в мире бесплатный архив песенных текстов, аккордов, табулатур и нот


Buckethead - Interworld And The New Innocence - таба, видео

Регистрация Запомнить меня
Войти через:  Facebook Google Twitter Vk Yandex Mail.ru

Buckethead - Interworld And The New Innocence - таба, видео

Печатать
Просмотров: 401
This is the follow up to my other half ass tab.
This is all you get because I am a lazy bum and I suck at writing out tabs.
This is a pretty repetitive solo so are the basic notes. It is good for you to try and 
this stuff out on your own. It makes you better.

E-------------------------------------------------------------------|
B----------------------------------10-------------------------------|
G-------------------------------------------------------------------|
D--------------11---------12-------------12-------------------------|
A--------9----------------------------------------------------------|
E--7----------------------------------------------------------------|


E-------------------------------------------------------------------|
B-------------------------------------------------------------------|
G-------------------------------------------------------------------|
D--------------11---------12---------11-----------------------------|
A--------9------------------------------12--------------------------|
E--7----------------------------------------------------------------|

E-------------------------------------------------------------------|
B-------------------------------------------------------------------|
G-------------------------------------------------------------------|
D---------------7-------9-------5-4---------------------------------|
A--------5----------------------------------------------------------|
E--3----------------------------------------------------------------|

E-------------------------------------------------------------------|
B-------------------------------------------------------------------|
G-------------------------------------------------------------------|
D---------------7-------9-------5-4---------------------------------|
A--------5----------------------------------------------------------|
E--3----------------------------------------------------------------|


E-------------------------------------------------------------------|
B---7vvvvv------7--8-----------10vv----8p7---7vvv--8----------------|
G---------------------7------------------------------7vvvvvvvv------|
D--------------------------9----------------------------------------|
A-------------------------------------------------------------------|
E-------------------------------------------------------------------|

E-----------------------9--10---------------------------------------|
B--------10vvvvv---7------------10vvvv---12--10---7-7--8------------|
G---------------------------------------------------------7---------|
D---9---------------------------------------------------------------|
A-------------------------------------------------------------------|
E-------------------------------------------------------------------|


E---------------------------------------------------9-10---12-------|
B-----------------------------------------10h12-12------------------|
G---6/7---6-6--6/7---6----------////11------------------------------|
D------------------------7------------------------------------------|
A-------------------------------------------------------------------|
E-------------------------------------------------------------------|

E--12b14----14b12------------9-10-9---17vv-17vvv-17vvv--15p14--14---|
B------------------12vvvv-------------------------------------------|
G-------------------------------------------------------------------|
D-------------------------------------------------------------------|
A-------------------------------------------------------------------|
E-------------------------------------------------------------------|

E----14-15--17------------------------------------------------------|
B---------------15vvv--15vvvv---15/14--14--14--14/15----------------|
G-------------------------------------------------------------------|
D----------------------------------------------------------12vvv----|
A-------------------------------------------------------------------|
E-------------------------------------------------------------------|

                             *This note is tricky to explain in tabs
E-------------------------------------------------------------------|
B--------------------10------------------------------8--7-----------|
G-----------7---------------7b9r7b9----9p7-----7--------------------|
D-----7/9--------9--------------------------9-----------------------|
A-------------------------------------------------------------------|
E-------------------------------------------------------------------|


E-------------------------------------------------------------------|
B--7-8--10----------------------------------------------------------|
G-----------7vvvvvvvvv----------------------------------------------|
D----------------------------9--11------------9--11-----------------|
A------------------------------------12---9----------12-------------|
E-------------------------------------------------------------------|

E-------------------------------------------------------------------|
B-------------------------------------------------------------------|
G-------------------------------------------------------------------|
D-----------------------------------------------------9-11-12-------|
A---9--10---12--------------9--10---12------------------------------|
E---------------10--9--10-----------------10-9--10------------------|

E-------------------------------------------------------------------|
B-------------------------------------------------------------------|
G-------------------------------------------------------------------|
D---11b12--9--------------------------------------------------------|
A-------------------------------------------------------------------|
E-------------------------------------------------------------------|
Добавлено: 06.06.2012
Другие материалы по этой песне:

Страница создана 15.05.2012
http://primanota.ru/buckethead/interworld-and-the-new-innocence-chords.htm
Привет, Гость.
Предлагаем пройти революционный курс по гитаре.
Подарок от PrimaNota.Ru, забирай!