PrimaNota.ru - самый крупный в мире бесплатный архив песенных текстов, аккордов, табулатур и нот


Buckethead - Iceman - таба, видео

Регистрация Запомнить меня
Войти через:  Facebook Google Twitter Vk Yandex Mail.ru

Buckethead - Iceman - таба, видео

Печатать
Просмотров: 229
Song: Iceman (Tribute to George Gervin)
Album: Slaughterhouse on the Prairie
Artist: Buckethead
Tabbed by: Brian Dumont (Brian0192837465@hotmail.com)

Simple song...fun to play. Rate and send me an e=mail or post a comment if you
have a correction!

0:00-0:13

                              P.M.                        x4
E||----------------------------------------------------||
B||o------------------------------------------------o--||
G||----------------------------------------------------||
D||---12------10---12----8-----------7-7-8-8-7-7-------||
A||o--12------10---12----8----5-5-8-8------------8-8-7-||
E||---10-------8---10----6-----------------------------||


0:14-0:27
---------

Rhythm: Tremelo Pick Open D  (P.M)        Tremelo pick A# on low A (P.M.)

E||----------------------------------|--------------------------------------|
B||o---------------------------------|--------------------------------------|
G||----------------------------------|--------------------------------------|
D||----7-4---4-7---7-4---4-7---7-4---|----8-5---5-8---8-5----5----3---------|
A||o-5-----5-----5-----5-----5-------|--6-----6-----6-----------------------|
E||----------------------------------|--------------------------------------|

                                                                           x2
Rhythm: Tremolo Pick Open D  (P.M.)        Tremolo pick A# on low A (P.M.)

E|---------------------------------|---------------------------------------||
B|---------------------------------|--------------------------------------o||
G|---------------------------------|---------------------------------------||
D|---7-4---4-7---7-4---4-7---7-4---|----10-7---7-10---10-7-10-7---5--------||
A|-5-----5-----5-----5-----5-------|--8------8------8---------------------o||
E|---------------------------------|---------------------------------------||


0:28-0:39
---------

E||----------------------------------|--------------------------------------|
B||o---------------------------------|--------------------------------------|
G||----------------------------------|--------------------------------------|
D||--12-12-12-10-12\-----------------|--3--------5-----5/8\7----------------|
A||o-12-12-12-10-12\-----------------|--3--------5-----5/8\7----------------|
E||--10-10-10--8-10\-----------------|--1--------3-----3/6\5----------------|

q                                                                           x2
E|-----------------------------------|-------------------------------------||
B|-----------------------------------|------------------------------------o||
G|-----------------------------------|-------------------------------------||
D|---12-12-12-10-12\-----------------|--3--------5-----5/10\8--------------||
A|---12-12-12-10-12\---------------- |--3--------5-----5/10\8-------------o||
E|---10-10-10--8-10\-----------------|--1--------3-----3/8\-6--------------||


0:40-0:54
---------

                              P.M.                          x4
E||----------------------------------------------------||
B||o------------------------------------------------o--||
G||----------------------------------------------------||
D||---12------10---12----8-----------7-7-8-8-7-7-------||
A||o--12------10---12----8----5-5-8-8------------8-8-7-||
E||---10-------8---10----6-----------------------------||

0:55-1:09
---------


  let ring throughout                  4x
E||-----------8-------8------8---------||
B||o--7--7------7-------7------7------o||
G||---9-----9-----9-------9------9-----||
D||--10--------------------------------||
A||o----------------------------------o||
E||------------------------------------||


1:10-1:20
---------


Rhythm: Tremelo Pick Open D  (P.M)        Tremelo pick A# on low A (P.M.)

E||----------------------------------|--------------------------------------|
B||o---------------------------------|--------------------------------------|
G||----------------------------------|--------------------------------------|
D||----7-4---4-7---7-4---4-7---7-4---|----8-5---5-8---8-5----5----3---------|
A||o-5-----5-----5-----5-----5-------|--6-----6-----6-----------------------|
E||----------------------------------|--------------------------------------|

                                                                           x2
Rhythm: Tremolo Pick Open D  (P.M.)        Tremolo pick A# on low A (P.M.)

E|---------------------------------|---------------------------------------||
B|---------------------------------|--------------------------------------o||
G|---------------------------------|---------------------------------------||
D|---7-4---4-7---7-4---4-7---7-4---|----10-7---7-10---10-7-10-7---5--------||
A|-5-----5-----5-----5-----5-------|--8------8------8---------------------o||
E|---------------------------------|---------------------------------------||


1:21-1:47
---------

Rhythm:
E|------------------------------------|-------------------------------------|
B|------------------------------------|-------------------------------------|
G|------------------------------------|-------------------------------------|
D|---12-12-12-10-12\------------------|--3--------5-----5/\7----------------|
A|---12-12-12-10-12\------------------|--3--------5-----5/\7----------------|
E|---10-10-10--8-10\------------------|--1--------3-----3/\5----------------|

q
E|------------------------------------|-------------------------------------|
B|------------------------------------|-------------------------------------|
G|------------------------------------|-------------------------------------|
D|---12-12-12-10-12\------------------|--3--------5-----5/1\8---------------|
A|---12-12-12-10-12\------------------|--3--------5-----5/1\8---------------|
E|---10-10-10--8-10\------------------|--1--------3-----3/\-6---------------|

Solo:

If you want I'll write out the tab for the solo if there is demaned for it.
It's pentatonic at the 16th fret.


1:48-2:05 (End)
---------------

                              P.M.                          x4
E||----------------------------------------------------||
B||o------------------------------------------------o--||
G||----------------------------------------------------||
D||---12------10---12----8-----------7-7-8-8-7-7-------||
A||o--12------10---12----8----5-5-8-8------------8-8-7-||
E||---10-------8---10----6-----------------------------||
Добавлено: 28.07.2012
Другие материалы по этой песне:

Страница создана 14.04.2012
http://primanota.ru/buckethead/iceman-chords.htm
Привет, Гость.
Предлагаем пройти революционный курс по гитаре.
Подарок от PrimaNota.Ru, забирай!