PrimaNota.ru - самый крупный в мире бесплатный архив песенных текстов, аккордов, табулатур и нот


Buckethead - Fountains Of The Forgotten Live - таба, видео

Регистрация Запомнить меня
Войти через:  Facebook Google Twitter Vk Yandex Mail.ru

Buckethead - Fountains Of The Forgotten Live - таба, видео

Печатать
Просмотров: 110
Artist : Buckethead
Song   : Fountains of the Forgotten (Live)
Album  : Cuckoo Clocks of Hell
Tuning : Eb Ab Db Gb Bb Eb

Eb|----------------------------------------------------------------||
Bb|----------------------------------------------------------------||
Gb|--10~~~~~---------9~~~~~---------13~~~----16~~--15~~--14~~~-----||
Db|----------------------------------------------------------------||
Ab|----------------------------------------------------------------||
Eb|----------------------------------------------------------------||

Eb|----------------------------------------------------------------||
Bb|----------------------------------------------------------------||
Gb|----------------------------------------------------------------||
Db|----------------------------------------------------------------||
Ab|-------------6h7p6h7p6------------------------------------------||
Eb|--2h3p2h3p2-----------6h7p6h7p6-7h8p7h8p7-5h6p5h6p5-4h5p4h5p4---||

Eb|--------------------------------||
Bb|--------------------------------||
Gb|--------------------------------||
Db|--------------------------------||
Ab|--------------------------------||
Eb|--3----333333-----3~------------||

Eb|------------------------------------------------||
Bb|------------------------------------------------||
Gb|------------------------------------------------||
Db|------------------------------------------------||
Ab|--------------3~-----------6p5p4p3--------------||
Eb|--3---333333-------333333-----------------------||
                 p.h.

Eb|--------------------------------||
Bb|--------------------------------||
Gb|--------------------------------||
Db|--------------------------------||
Ab|--6p5p4p3--------6p5p4p3--------||
Eb|-----------3---------------2----||
  
   with whammy                 
Eb|------------------------------------------------------------------||
Bb|-3-4-5-6-7-8-9-10-11-12-13-14-15-16-15-14-13-12-11-10-9-8-7-6-5-4-||
Gb|------------------------------------------------------------------||
Db|-4-5-6-7-8-9-1011-12-13-14-15-16-17-16-15-14-13-12-11-109-8-7-6-5-||
Ab|-5-6-7-8-9-101112-13-14-15-16-17-18-17-16-15-14-13-12-11109-8-7-6-||
Eb|------------------------------------------------------------------||

    with whammy
Eb|--------------------------------||
Bb|--3--2--1-----------------------||
Gb|--------------------------------||
Db|--4--3--2-----------------------||
Ab|--5--4--3-----------------------||
Eb|--------------------------------||

Eb|--------------------------------||
Bb|--------------------------------||
Gb|--------------------------------||
Db|-----9-----10-------12----------||
Ab|--------------------------------||
Eb|-0-7---0-8----0-10------8~~-----||

Eb|--------------------------------||
Bb|--------------------------------||
Gb|--------------------------------||
Db|-------9-----7-----5------------||
Ab|--------------------------------||
Eb|--0-7----0-5---0-3----2~~-------|| 

on the second time around it goes like this
Eb|--------------------------------||
Bb|--------------------------------||
Gb|--------------------------------||
Db|-----9-----10-------12---10~~---||
Ab|--------------------------------||
Eb|-0-7---0-8----0-10--------------||

   with wah
Eb|----------------------------------------------------------------||
Bb|----------------------------------------------------------------||
Gb|----------------------------------------------------------------||
Db|----------5~----------------------------------------------------||
Ab|-------------7~~----------------------5-5s7~-0--2-0-2s3-2~~~----||
Eb|--12\\-0---------5--7--5-3-3-5-3---0----------------------------||


go back and repeat that part with the whammy except this time dont use the whammy

   This is the slap part
Eb|--------x----x----x-------------||
Bb|--------------------------------||
Gb|--------------------------------||
Db|----------------------7--6~-----||
Ab|----------------------7--6~-----||
Eb|-0-xx-xx--7p5--x------5--4~-----||

Eb|----------------||
Bb|----------------||
Gb|----------------||
Db|----------------||
Ab|----------------||repeat 3 times
Eb|-2p4h3p5p3h4p2--||
for this part, palm mute it, but do hammer ons and pull offs

Eb|----------------||
Bb|----------------||
Gb|----------------||
Db|----------------||
Ab|----------------||
Eb|--12p0-12-------|| repeat many times
p.m.|-------|


Eb|--------------------------------||
Bb|--------------------------------||
Gb|--------------------------------||
Db|--------------------------------||
Ab|--------------------------------|| repeat
Eb|-2-3-2---6-7-6~~----------------||
during the part after the 232 676 just play some fast notes up on the e string


Eb|----------------------------------------------------------------||
Bb|----------------------------------------------------------------||
Gb|----------------------------------------------------------------||
Db|----------------------------------------------------------------||
Ab|----------------------------------------------------------------||
Eb|--2-3-2~~--6-7-6~~~---9-8-9-10---8-7--8-6~----------------------||


Добавлено: 28.07.2012
Другие материалы по этой песне:
  • Аккорды и текст

Страница создана 28.07.2012
http://primanota.ru/buckethead/fountains-of-the-forgotten-live-chords.htm
Привет, Гость.
Предлагаем пройти революционный курс по гитаре.
Подарок от PrimaNota.Ru, забирай!