PrimaNota.ru - самый крупный в мире бесплатный архив песенных текстов, аккордов, табулатур и нот


Buckethead - Game Of Death Theme - таба, видео

Регистрация Запомнить меня
Войти через:  Facebook Google Twitter Vk Yandex Mail.ru

Buckethead - Game Of Death Theme - таба, видео

Печатать
Просмотров: 232
Buckethead - Game of Death Theme 

~ = Slide


Tabbed By Ex Mortis Man www.myspace.com/evilrootman

Intro                              Chords  |F#|E|
           F#   B  D    G  B       
E---------------------------------|-----------------|
B---------------------------------|-14-------12--14-|
G----------11------7-------4------|-----------------|
D----------11---9--7----5--4------|-----------------|
A----------9----9--5----5--2------|-----------------|
E---------------7-------3---------|-----------------|
Chord Progression  |F#|A|B|C#|       
E--------------------------------------------------------------------------|
B--------------------------------------------------------------------------|
G---------------11--11----------------7-7---------------------9-11-13------|
D-----~8-9--11-------------~8-9--11-------------------9-11-12--------------|
A-------------------------------------------~9-11-12-----------------------|
E--------------------------------------------------------------------------|
                 
E----------------17-14-16-14-14---------------------------------------11-13-16------|
B-----11-12--14-----------------11-12-14---15-15------------11-12-14----------------|
G-------------------------------------------------11-13-14--------------------------|
D-----------------------------------------------------------------------------------|
A-----------------------------------------------------------------------------------|
E-----------------------------------------------------------------------------------|
Chord Progression |A#|D#|G#|  Play twice      Third time end with this...
E----18-------------------~22-21-20-21-20----|---18------------------------22-19-21----|
B--------14--16--18--19----------------------|------14--16-18-19-16-18-19--------------|
G--------------------------------------------|-----------------------------------------|
D--------------------------------------------|-----------------------------------------|
A--------------------------------------------|-----------------------------------------|
E--------------------------------------------|-----------------------------------------|
Fill
E--------------------|
B--------------------|
G--------------------|
D---------7--6-------|
A---9--7--5--4--5----|
E---7--5--------3----|


Palm Mute...listen for rhythm         x2                                             
E----------------------------------------|----------------------------------------------|
B----------------------------------------|----------------------------------------------|
G----------------------------------------|----------------------------------------------|
D--4--6--6--7--6--6--7--6--9--6--6--4--6-|---6--7--7--9--7--7--9--7--11-----------------|
A--2--4--4--5--4--4--5--4--7--4--4--2--4-|---4--5--5--7--5--5--7--5--9--12--12--11-12-12|
E----------------------------------------|------------------------------10--10--9--10-10|

        x2                                                 x2
E---------|--------------------------------------------------|
B---------|--------------------------------------------------|
G---------|--------------------------------------------------|
D---------|--7--9--9--11-9--9--11-9--12--9--9--7--9--9--7--9-|
A--11-12--|--5--7--7--9--7--7--9--7--10--7--7--5--7--7--5--7-|
E--9--10--|--------------------------------------------------|

E-----------------------------------------------------|
B-----------------------------------------------------|
G-----------------------------------------------------|
D--9--11-11-12--11-11-12--11-14--11-11-9--11-11-9--11-|
A--7--9--9--10--9--9--10--9--12--9--9--7--9--9--7--9--|
E-----------------------------------------------------|
Добавлено: 09.05.2012
Другие материалы по этой песне:
  • Аккорды и текст

Страница создана 09.05.2012
http://primanota.ru/buckethead/game-of-death-theme-chords.htm
Привет, Гость.
Предлагаем пройти революционный курс по гитаре.
Подарок от PrimaNota.Ru, забирай!