PrimaNota.ru - самый крупный в мире бесплатный архив песенных текстов, аккордов, табулатур и нот


Buckethead - Formless Present - таба, видео

Регистрация Запомнить меня
Войти через:  Facebook Google Twitter Vk Yandex Mail.ru

Buckethead - Formless Present - таба, видео

Печатать
Просмотров: 117
                                      ¨Buckethead¨


                                   - Formless Present -



Tabbed by 'Toine'
My cover of this song http://www.youtube.com/watch?v=QNCuOfCkKsU

The guitar is tuned down 3 steps.

A. Intro   | I use tap harmonics for the intro | 
 play 4x                                           or
----------------------------------------------------  --------7~--------
------------------0~--------------------------------  ----7-8-----------
---------------0------------------------------------  --9---------------
------------4---------------------------------------  ------------------
---------7------------------------------------------  --7---------------
----------------------------------------------------  ------------------

at 0.32 min.
------0---------0----------------------  ------0---------0-------------
---8-----8---7-------3~----------------  ----8---8---7------3~---------
---9---------7-------2~----------------  ----9-------7------4~---------
---9---------7-------4~----------------  ----9-------7------4~---------
---7---------5-------2~----------------  ----7-------5------2~---------
---------------------------------------  ------------------------------


  |            play 3x                  |      
---0----0----0----0----0----0----0----0------   --------------
--12---12----8----8----7----7----3----3------   --3~----------
---------------------------------------------   --4~----------
---------------------------------------------   --5~----------
---------------------------------------------   --5~----------
---------------------------------------------   --------------

at 1.04 min.   play 4x
-----------------------------------------------------------
-------7h8p7----------5h7p5--------------------------------
-------7-----7--------7-----7---------4~-------------------
-------9-------9------7-------7-------5~-------------------
-------7--------------5---------------3~-------------------
-----------------------------------------------------------


at 1.37   the {} means harmonics 
 play 3x
---------{12}------------------------------   ----{12}-------------2~----
---------------{12-------------------------   --------{12}---------3~----
---------------------{12}---------{7}------   ------------{12}-----4~----
---------------------------------{7}-------   ---------------------2~----
--------------------------------{7}--------   ---------------------------
-------------------------------------------   ---------------------------


at 1.55   |play 4x|

---------------------------------
-------------------0-------------
----------------0-----0----------
------------10-------------------
--------10-----------------------
-----0---------------------------



then go back to the intro :)



PLEASE RATE AND COMMENT!!


Добавлено: 26.04.2012
Другие материалы по этой песне:

Страница создана 06.04.2012
http://primanota.ru/buckethead/formless-present-chords.htm
Привет, Гость.
Предлагаем пройти революционный курс по гитаре.
Подарок от PrimaNota.Ru, забирай!