PrimaNota.ru - самый крупный в мире бесплатный архив песенных текстов, аккордов, табулатур и нот


Buckethead - Ellipsis - таба, видео

Регистрация Запомнить меня
Войти через:  Facebook Google Twitter Vk Yandex Mail.ru

Buckethead - Ellipsis - таба, видео

Печатать
Просмотров: 122
From album Population Override (2004) track 10 ...

E |----------------|----------------|----------------|----------------||
B |----------------|----------------|----------------|----------------||
G |------11b12-----|---------11b12--|----------11b12~|---------11b12~~||
D |--14------------|-10--14---------|--10--14--------|--10--14--------||
A |----------------|----------------|----------------|----------------||
E |----------------|----------------|----------------|----------------||

E |------------12~-|----------------||
B |------------12~-|----------------||
G |----------------|----------------||
D |----------------|---------11b12--||
A |----------------|--10--14--------||
E |---8------------|----------------||

E |------------12~-|----------------||
B |------------12~-|----------------||
G |----------------|----------------||
D |------10~~------|---------11b12--||
A |----------------|--10--14--------||
E |---8------------|----------------||

E |-------------------|----------------|----------------|------------------||
B |-------------------|----------------|----------------|------------------||
G |-------------------|----------------|----------------|------------------||
D |-------------2-----|----------------|----------------|------------------||
A |-------------------|-----------3----|-----------2----|-----1-1-1-1-1----||
E |-00--00-0-3-(3)----|-00-00-0-3------|-00-00-0-3------|-0-3-----------3-0||

E |-------0-x-0----|------0--x--0---|-----0--x--0----|------0--x--0---||
B |-------0-x-0----|------0--x--0---|-----0--x--0----|------0--x--0---||
G |----------------|----------------|----------------|----------------||
D |----------------|----------------|----------------|----------------||
A |----------------|----------------|----------------|----------------||
E |--3s0-----------|--3s0-----------|-3s0------------|--3s0-----------||

E |----------------|----------------|----------------|----------------||
B |------5------5--|------5-------5-|----------------|----------------||
G |--7b9---7b9-----|-7b9-----7b9----|--------------5-|----------------||
D |----------------|----------------|--7b9-7b9-7b9---|-7-s-5-----------||
A |----------------|----------------|----------------|-------7--------||
E |----------------|----------------|----------------|----------------||

E |-------0-x-0----|------0-------0---|
B |-------0-x-0----|------0-------0---|
G |---------x------|---------x-x------|
D |----------------|---------x-x------|
A |----------------|-----------------|
E |--3s0-----------|--3s0------------|

E |----------------|-----------------|----------------|----------------||
B |------5------5--|------8b9------5-|----------------|----------------||
G |--7b9---7S9-----|-7b9------7b9----|--------------5-|----------------||
D |----------------|-----------------|--7b9-7b9-7b9---|-7--5-----------||
A |----------------|-----------------|----------------|-------7--------||
E |----------------|-----------------|----------------|----------------||

E |----------------|----------------||
B |----------------|----------------||
G |----------------|----------------||
D |-------7-7-x-7--|-----7-7-x-7----||
A |-------7-7-x-7--|-----7-7-x-7----||
E |--3s5--5-5-x-5--|-3s5-5-5-x-5----||

E |-------0-x-0----|------0--x--0---||
B |-------0-x-0----|------0--x--0---||
G |----------------|----------------||
D |----------------|----------------||
A |----------------|----------------||
E |--3s0-----------|--3s0-----------||

E |-7-7-x-77--8-8--|-7------------------||
B |-7-7-x-77--8-8--|-7------------------||
G |----------------|--------------------||
D |----------------|--------------------||
A |----------------|--------------------||
E |----------------|----3s0-(0)-(0)-0-0-||

E |-7-7-7-7-7-7~~--||
B |-7-7-7-7-7-7~~--||
G |----------------||
D |----------------||
A |----------------||
E |----------------||
       >
E |----10b11-10pb11-|-----------------------------------||
B |-----------------|--------------------------9b10-----||
G |-----------------|--8-(8)-8b10-x-8b10-x8b10------9~~-||
D |-----------------|-----------------------------------||
A |-----------------|-----------------------------------||
E |-0---------------|-----------------------------------||

E |----------------||
B |----------------||
G |----------------||
D |----------------||
A |--5p0-----------||
E |----------------||


tabbed by Charles Montoya


Tablature Legend
----------------
L - tied note
x - dead note
g - grace note
(n) - ghost note
> - accentuded note
p - pull off
b - bend
br - bendRelease
pb - preBend
pbr - preBendRelease
brb - bendReleaseBend
\n/ - tremolo bar dip
\n - tremolo bar dive
-/n - tremolo bar Release up
/n\ - tremolo bar inverted dip
/n - tremolo bar return
-\n - tremolo bar Release down
S - shift slide
s - legato slide
/ -  slide into from below or out of upwards
\ -  slide into from above or out of downwards
~ - vibrato
W - wide vibrato
< - fade in
^ - brush up
v - brush down
 

Добавлено: 02.06.2012
Другие материалы по этой песне:
  • Аккорды и текст

Страница создана 02.06.2012
http://primanota.ru/buckethead/ellipsis-chords.htm
Привет, Гость.
Предлагаем пройти революционный курс по гитаре.
Подарок от PrimaNota.Ru, забирай!