PrimaNota.ru - самый крупный в мире бесплатный архив песенных текстов, аккордов, табулатур и нот


Buckethead - Disceto - таба, видео

Регистрация Запомнить меня
Войти через:  Facebook Google Twitter Vk Yandex Mail.ru

Buckethead - Disceto - таба, видео

Печатать
Просмотров: 209
Song: Disecto
Artist: Buckethead
Album: Decoding The Tomb Of Bansheebot

I tabbed it in standard because they're aren't any open strings, but as I know some 
like to play it eb, so just transfer everything up a fret (or 2). Also the timing may not be 
but you get the idea.

Intro                                  x7 then
e|----17\16------------------------------|------------------------------|
B|-------------17------------17------17--|-----12-----12-----10-----10--|
G|-14-------14------14---13------13------|--9------9------7-------------|
D|---------------------------------------|------------------------------|
A|---------------------------------------|------------------------------|
E|---------------------------------------|------------------------------|

Riff A                                 x3
e|-------------------------------------------------|
B|-------------------------------------------------|
G|-------------------------------------------------|
D|---9-11---9-11---9-11---9-11---9-9---9-11--7-----|
A|---7/9----7/9----7/9----7/9----7-7---7/9---5-----|
E|-------------------------------------------------|

  then
e|-----------------------------|
B|-----------------------------|
G|-----------------------------|
D|---7-7-6-4-------------------|
A|---5-5-4-2------7-7-6-4------|
E|----------------5-5-4-2------|


Kick the distortion off   x8
e|--------------------------|
B|-7p5-5--x-----5-----------|
G|----------4h6----2-4p2----|
D|-----------------------4--|
A|--------------------------|
E|--------------------------|

then                                  x2  then back to the previous riff x4
e|--------------------------|---------------------|
B|-10p9-9-------------------|-10p9-9--------------|
G|----------9h11---------9--|----------9h11--9----|
D|----------------9h11------|---------------------|
A|--------------------------|---------------------|
E|--------------------------|---------------------|

W/killswitch over the top of Riff A                                     x3
e|------------------------------------------------------------------------|
B|-14-14-14-14-17-17-17-17-10-10-10-10-12-12-12-12------------------------|
G|------------------------------------------------9-9-9-9-9-9-11-11-11-11-|
D|------------------------------------------------------------------------|
A|------------------------------------------------------------------------|
E|------------------------------------------------------------------------|

then (it's really 8 9's and 11's but I couldn't fit it on the line above)
e|-----------------------------------------|
B|-----------------------------------------|
G|-9-9-9-9-9-9-9-9-11-11-11-11-11-11-11-11-|
D|-----------------------------------------|
A|-----------------------------------------|
E|-----------------------------------------|

                              x3 then           (whole thing) x2
e|------------------------------|----------------------------------|
B|------------------------------|----------------------------------|
G|-----------4---6---9---11-11--|-6----4---6-----------------------|
D|-4-----7---4---6---9---11-11--|-6----4---6---7---9---2---4-------|
A|-4-----7---2---4---7---9--9---|-4----2---4---7---9---2---4-------|
E|-2-----5----------------------|--------------5---7---0---2-------|

e|------------------------|
B|------------------------|
G|------------------------|
D|---4--------------------|
A|---2---------4----------|
E|-------------2----------|

E|------------------------------------------|
B|------------------------------------------|
G|-------------------------------------8----|
D|-------------------------------------6----|
A|--4-4-----------8-----4-4-----------------|
E|--2-2--22222222-6-----2-2--22222222-------|
  (the parts to pm are obvious)

E|------------------------------------------------------|
B|------------------------------------------------------|
G|------------------------------------------------------|
D|------------------------------------------------------|
A|--4-4------------5-5----4-4---------------------------|
E|--2-2--22222222--3-3----2-2--222222222222222222-------|

E|--------------------------------------------|
B|--------------------------------------------|
G|--------------------------------------------|
D|--------------------------------------------|
A|--4-4------------4---4---4------------4-----|
E|--2-2--22222222--2---2---2--22222222--2-----|

End
Добавлено: 15.06.2012
Другие материалы по этой песне:

Страница создана 15.06.2012
http://primanota.ru/buckethead/disceto-chords.htm
Привет, Гость.
Предлагаем пройти революционный курс по гитаре.
Подарок от PrimaNota.Ru, забирай!