PrimaNota.ru - самый крупный в мире бесплатный архив песенных текстов, аккордов, табулатур и нот


Buckethead - Destroyer - таба, видео

Регистрация Запомнить меня
Войти через:  Facebook Google Twitter Vk Yandex Mail.ru

Buckethead - Destroyer - таба, видео

Печатать
Просмотров: 143
EADgbe

"Speed Flux Quadrant" 0:46-2:57
Main Riff
Guitar 1 (lots of distortion) and Distorted Bass
|-------------------------------------------------------------------||
|-------------------------------------------------------------------||
|-------------------------------------------------------------------||
|-------------------------------------------------------------------||
|-------------------------------------------------------------------||
|*00000000000000000000000000000000000000000000000000000000000000000-||
P.M.-------------------------------------------------------------->

Guitar 2 (not as much distortion)
|-------------------------------------------------------------------------------------||
|-------------------------------------------------------------------------------------||
|-------------------------------------------------------------------------------------||
|-----------------------------------------------------------------------3-2-1-2-------||
|*222222~~-/7--222222~~-/6--22222-/7-2222-------------------------------5-4-3-2-------||
|-----------------------------------------------------------------------5-4-3-0-------||
P.M.----------------------------------------------------------------------------------||

For the next part Guitar 1 plays what's on the A string for the whole part, Guitar 2 
that and the power chords.
The Distorted Bass does the main riff open thing, and guitar 1/2 do this:
|-------------------------------------------------------------------------||
|-------------------------------------------------------------------------||
|-------------------------------------------------------------------------||
|------------------------------------------------------------3-2-1-2------||
|*222222-/7-22222--/6--22222-/7-2222-------------------------5-4-3-2------||
|------------------------------------------------------------5-4-3-0------||
P.M.----------------------------------------------------------------------||

|---------------------------------------------------------------------------------||
|---------------------------------------------------------------------------------||
|---------------------------------------------------------------------------------||
|-------------------------------------------------------------2---7^--*333--------||
|*22222-/7--22222-/6-22222-/7-2222----------------------------2---7^--*333--------||
|-------------------------------------------------------------0---5^--*111--------||
P.M.------------------------------------------------------------------------------|| P.M

Then repeat all that until about 2:38

"Inclusion" 2:57-7:06
Main Riff
|---------------------------------------------------------------------||
|---------------------------------------------------------------------||
|---------------------------------------------------------------------||
|--2---1----2-1-2-3-1-------------------------------------------------||
|--2---3----2-3-2-5-3-------------------------------------------------||
|--0---3----0-3-0-5-3-------------------------------------------------||
P.M-------------------------------------------------------------------||
A couple of times he won't PM the 5 , just listen to it to see when he does it.
The little diddy things in the middle with the delay, I don't know right now. I might get back to them.

"Exhaust Release"
Bass Line
|------------------------------------------------------------------||
|------------------------------------------------------------------||
|------------------------------------------------------------------||
|--3-0-3-1-333-1-3-4-----------------------------------------------||

|-------------------------------------------------------------------||
|-------------------------------------------------------------------||
|-------------------------------------------------------------------||
|--3-0-3-1-3333-3-1-3-4---------------------------------------------||

That sounds something like it.

Well that's it for Destroyer now.
Добавлено: 07.03.2012
Другие материалы по этой песне:
  • Аккорды и текст

Страница создана 07.03.2012
http://primanota.ru/buckethead/destroyer-chords.htm
Привет, Гость.
Предлагаем пройти революционный курс по гитаре.
Подарок от PrimaNota.Ru, забирай!