PrimaNota.ru - самый крупный в мире бесплатный архив песенных текстов, аккордов, табулатур и нот


Buckethead - City Of Woe - бас-таба, видео

Регистрация Запомнить меня
Войти через:  Facebook Google Twitter Vk Yandex Mail.ru

Buckethead - City Of Woe - бас-таба, видео

Печатать
Просмотров: 121
Artist: Buckethead
Song: City Of Woe
Album: Shadows Between The Sky
Tabbed by Aidenkral

[0:00]
C----------------------------------------|
G----------------------------------------|
D------3-1-3----3--5--6--5---3-1-3-------|
A---3------------------------------------|
E-----------------------------------1----|
B----------------------------------------|


[0:15]
C----------------------------------------|
G----------------------------------------|
D------3-1-3---5--6--5---3-1-3-----------|
A---3------------------------------------|
E-----------------------------------1----|
B----------------------------------------|


[0:28]
C----------------------------------------|
G---5----1~------------------------------|
D---------------3-1-3---5-6-5--3-1-3-----|
A----------------------------------------|
E-----------1------------------------1---|
B----------------------------------------|


[0:52]
C----------------------------------------|
G---5\(1)-1~------------------------5----|
D----------------------------------------|
A----------------------------------------|
E---------------------1-1-1-1----1-------|
B----------------------------------------|


[1:13]
C----------------------------------------|
G-------------------6--5-----------------|
D----------3-----------------------------|
A----------------------------------------|
E---(1)-1--------------------------------|
B----------------------------------------|


[1:25]
C----------------------------------------|
G------------------5-5-5-5----/6---------|
D--------3-3-3---------------------------|
A----------------------------------------|
E-->(1)---------1------------------------|
B----------------------------------------|


[1:36]
C----------------------------------------|
G----6-5-6-5--------5-5-5-5-3---3-3--3-1-|
D----------------------------------------|
A----------------------------------------|
E----------------1-----------------------|
B----------------------------------------|


[1:47]
C--------------------------------------5-|
G---0------------------------------------|
D-------3-1-3----------3-5-6-5---3-1-3---|
A--------------------3-------------------|
E----------------1-----------------------|
B----------------------------------------|
Добавлено: 25.05.2012
Другие материалы по этой песне:

Страница создана 28.02.2012
http://primanota.ru/buckethead/city-of-woe-chords.htm
Привет, Гость.
Предлагаем пройти революционный курс по гитаре.
Подарок от PrimaNota.Ru, забирай!