PrimaNota.ru - самый крупный в мире бесплатный архив песенных текстов, аккордов, табулатур и нот


Buckethead - Computer Master Live - таба, видео

Регистрация Запомнить меня
Войти через:  Facebook Google Twitter Vk Yandex Mail.ru

Buckethead - Computer Master Live - таба, видео

Печатать
Просмотров: 132
                          "Computer Master Live"
                                Buckethead
                          Tabbed by Daniel Strain

OK this is the live version if you would like the actual link please contact me and I 
give it to you : )

Tuning is a Half Step Down
|----------------------------------------------------|
|----------------------------------------------------|
|------3--------------------------3------------------|X2
|--3h5---5--------------------3h5---5----------------|
|----------3-1-3-1--------------------3-1-3-1~-------|
|------------------3--3-1h3--------------------------|

|-----------------------------------------------------------------|
|--------11-----------------------------------11------------------|
|--10h12----12--------------------------10h12----12---------------|X2
|--------------10-8-10-8----------------------------10-8-10-8~----|
|------------------------10--10-8h10------------------------------|
|-----------------------------------------------------------------|

|-------------------------------------------------------------------------|
|-------------------------------------------------------------------------|
|-------------------------------------------------------------------------|X2
|-------------------------------------------------------------------------|
|----------------------------1~-----------------------------3~-3p1--------|
|--1h3-3-3-1h3-1-1h3-3-3-1h3------1h3-3-3-1h3-1-1h3-3-3-1h3--------3-1-3--|

|----------------------------------------------------|
|----------------------------------------------------|
|------3--------------------------3------------------|X2
|--3h5---5--------------------3h5---5----------------|
|----------3-1-3-1--------------------3-1-3-1~-------|
|------------------3--3-1h3--------------------------|

 Kinda Uses a Wah Petal in parts
|-------------------------------------------------------------------------|
|-------------------------------------------------------------------------|
|-------------------------------------------------------------------------|X2
|-------------------------------------------------------------------------|
|----------------------------1~-----------------------------3~-3p1--------|
|--1h3-3-3-1h3-1-1h3-3-3-1h3------1h3-3-3-1h3-1-1h3-3-3-1h3--------3-1-3--|

|----------------------------------------------------|
|----------------------------------------------------|
|------3--------------------------3------------------|
|--3h5---5--------------------3h5---5----------------|
|----------3-1-3-1--------------------3-1-3-1~-------|
|------------------3--3-1h3--------------------------|

|--------------------------|
|--------------------------|
|--------------------------|X2
|--6--6-6-6-6-7-6-6-4-6-2--|
|--4--4-4-4-4-4-4-4-2-2-0--|
|--------------------------|

With Kill Switch
|------------------------------------|
|------------------------------------|
|------------------------------------|
|--6--6-6--------7--7-7-7------------|
|---------4--4-4---------4-4-2-4-2---|
|----------------------------------5-|

|--------------------------|
|--------------------------|
|--------------------------|X2
|--6--6-6-6-6-7-6-6-4-6-2--|
|--4--4-4-4-4-4-4-4-2-2-0--|
|--------------------------|

 SOLO
|--------------------------------------------------------17h20p17h19p17---|
|--------------------------------------13-15-17-17-18-20------------------|
|-----------------------------14-16-17------------------------------------|
|--------------------14-15-17---------------------------------------------|
|-----------14-15-17------------------------------------------------------|
|--13-15-17---------------------------------------------------------------|

|-20-20-20-20p19p17--20p19p17---------------------------------------------|
|------------------20---------20-17h18p17-20p17-18p17---20-17h18p17-20p17-|
|----------------------------------------------------19-------------------|
|-------------------------------------------------------------------------|
|-------------------------------------------------------------------------|
|-------------------------------------------------------------------------|

|------------------------------------------------------------------------|
|-18p17---20-20p17-18p17-------------------------------------------------|
|------19---------------19-16h17p16-19p16-17p16--16h17p16-19p16-17p16----|
|----------------------------------------------19--------------------19--|
|------------------------------------------------------------------------|
|------------------------------------------------------------------------|

|--------------------------------------------------16b-------15-----------|
|--------------------------------------------------17b----15b--15-13-15p13|
|-------------------------------------------------------------------------|
|-14h15p14-17p14-15p14--14h15p14-17p14-15p14------------------------------|
|---------------------17--------------------17-15-------------------------|
|-------------------------------------------------------------------------|

I'm sorry I only put like an 1/8 of the solo.I Promise I will tab the rest very shortly 
would save it and submit it later but my computer for some reason doesn't like to save 
tabs so...
Добавлено: 27.05.2012
Другие материалы по этой песне:

Страница создана 27.05.2012
http://primanota.ru/buckethead/computer-master-live-chords.htm
Привет, Гость.
Предлагаем пройти революционный курс по гитаре.
Подарок от PrimaNota.Ru, забирай!