PrimaNota.ru - самый крупный в мире бесплатный архив песенных текстов, аккордов, табулатур и нот


Buckethead - Chaos Of The Unconscious - таба, видео

Регистрация Запомнить меня
Войти через:  Facebook Google Twitter Vk Yandex Mail.ru

Buckethead - Chaos Of The Unconscious - таба, видео

Печатать
Просмотров: 119
Уроки эстрадного вокала в Санкт-Петербурге
-------------------------------------------------------------------------------
                             Chaos Of The Unconscious - Buckethead
-------------------------------------------------------------------------------
Tabbed by: Cross
E-mail: guscruzl@hotmail.com

Well this is my first tab.
I was looking for a tab of this song and couldn't find it, so I decided to do it myself.
I think it's accurate and I hope you like it.
Don't hesitate to leave any suggestions or corrections!

Buckethead!! \m/

Tuning:

e|-----------------------|-----------------------|-----------------------|
B|-----------------------|-----------------------|-----------------------|
G|-----------------------|-----------------------|-----------------------|
D|--8-10-11-8---11-8-11--|--8-10-11-8---11-8-11--|--8-10-11-8---11-8-11--| x4
A|------------8----------|------------8----------|------------8----------|
E|-----------------------|-----------------------|-----------------------|

e|----------------|-------------|
B|----------------|-------------|
G|--10---10--10---|---5-----5---| x2
D|--11---11--11---|---6-----6---|
A|--8----8---8----|---4-----4---|
E|----------------|-------------|

e|-----------------------|-----------------------|
B|-----------------------|-----------------------|
G|-----------------------|-----------------------|
D|--8-10-11-8---11-8-11--|--8-10-11-8---11-8-11--| x4
A|------------8----------|------------8----------|
E|-----------------------|-----------------------|

e|----------------|-------------|
B|----------------|-------------|
G|--10---10--10---|---5-----5---| x2
D|--11---11--11---|---6-----6---|
A|--8----8---8----|---4-----4---|
E|----------------|-------------|

e|---------------------------------|
B|---------------------------------|
G|--10----8--10----11--10----8--6--|
D|--11---10--11----11--11---10--8--| x2
A|--8-----6--8-----8---8-----6--4--|
E|---------------------------------|

e|-----------------------------------|
B|-----------------------------------|
G|--5--3----5--6----5--3----5--6-----|
D|--6--3----6--8----6--3----6--8-----|
A|--4--4----4--4----4--4----4--4-----|
E|-----------------------------------|

e|---------------------------------|
B|---------------------------------|
G|--10----8--10----11--10----5--6--|
D|--11---10--11----11--11----6--8--|
A|--8-----6--8-----8---8-----4--4--|
E|---------------------------------|

e|--------------------------------------------------------------------------------------|
B|-------------------------------------------------------4-------------------4----------|
G|-------------6--------------------5---------------------------------------------------| x2
D|------3---3--------3-------3---3--------3-------3---3--------3-------1---1--------1---|
A|----4---4-------4--------4---4-------4--------4---4-------4--------3---3-------3------|
E|--6--------------------6--------------------4--------------------4--------------------|

e|-----------------------|-----------------------|-----------------------|
B|-----------------------|-----------------------|-----------------------|
G|-----------------------|-----------------------|-----------------------|
D|--8-10-11-8---11-8-11--|--8-10-11-8---11-8-11--|--8-10-11-8---11-8-11--| x4
A|------------8----------|------------8----------|------------8----------|
E|-----------------------|-----------------------|-----------------------|

e|---------------------------------|
B|---------------------------------|
G|--10----8--10----11--10----5--6--|
D|--11---10--11----11--11----6--8--|
A|--8-----6--8-----8---8-----4--4--|
E|---------------------------------|

e|-----------------------------------|
B|-----------------------------------|
G|--5--3----5--6----5--3----5--6-----|
D|--6--3----6--8----6--3----6--8-----|
A|--4--4----4--4----4--4----4--4-----|
E|-----------------------------------|

e|---------------------------------|
B|---------------------------------|
G|--10----8--10----11--10----5--6--|
D|--11---10--11----11--11----6--8--|
A|--8-----6--8-----8---8-----4--4--|
E|---------------------------------|


************************************

| /   slide up
| \   slide down
| h   hammer-on
| p   pull-off
| ~   vibrato
| +   harmonic
| x   Mute note
| b   Bend
| pb  Pre-bend
| br  Bend release
| pbr Pre-bend release
| brb Bend release bend

************************************
Добавлено: 10.08.2013
Другие материалы по этой песне:

Страница создана 24.04.2012
http://primanota.ru/buckethead/chaos-of-the-unconscious-chords.htm
Привет, Гость.
Предлагаем пройти революционный курс по гитаре.
Подарок от PrimaNota.Ru, забирай!