PrimaNota.ru - самый крупный в мире бесплатный архив песенных текстов, аккордов, табулатур и нот


Black Stone Cherry - Violator Girl - текст песни, таба, бас-таба, видео

Регистрация Запомнить меня
Войти через:  Facebook Google Twitter Vk Yandex Mail.ru

Black Stone Cherry - Violator Girl - текст песни, таба, бас-таба, видео

Печатать
Просмотров: 189
Violator Girl by Black Stone Cherry

Drop C# Tuning

INTRO
eb------------------------------------------------------------------|
Bb------------------------------------------------------------------|
Gb------------------------------------------------------------------|
Db------------------------------------------------------------------|
Ab--3h5-3-5p0-3p0--3h5-3-5p0-3p0--3h5-3-5p0-3p0--3h5-3-5p0-3p0------|
Db--------5p0-3p0--------5p0-3p0--------5p0-3p0--------5p0-3p0-/12--|

VERSE                                   x6 
eb---------------------------------------|
Bb---------------------------------------|
Gb---------------------------------------|
Db---------------------------------------|
Ab--3h5-3-5p0-3p0--3h5-3--5p0-3p0-x-x-x--|
Db--------5p0-3p0---------5p0-3p0-x-x-x--|

CHORUS                                          x3
eb-----------------------------------------------|
Bb-----------------------------------------------|
Gb-----------------------------------------------|
Db--3-3-3-3-3--5-5-5-5-5-------------------------|
Ab--3-3-3-3-3--5-5-5-5-5--0-2h3-3--0h2-2--0h2-1--|
Db--3-3-3-3-3--5-5-5-5-5--0-2h3----0h2----0h2----|

CHORUS cont.
eb------------------------|
Bb------------------------|
Gb------------------------|
Db--3-3-3-3-3--5-5-5-5-5--|
Ab--3-3-3-3-3--5-5-5-5-5--|
Db--3-3-3-3-3--5-5-5-5-5--|

1.56 BEFORE SOLO
eb---------|
Bb---------|
Gb--7------|
Db--7---5--|
Ab--5---5--|
Db------5--|

SOLO
eb----------------------------------------------------------------|
Bb----------------------------------------------------------------|
Gb--10b-7--------------12b--15b--15-15-15-15-15-15-15-15r--10-12--|
Db--------7-10-12-12v---------------------------------------------|
Ab----------------------------------------------------------------|
Db----------------------------------------------------------------|
                                play ^ these 15s ^ without
                                releasing the bend
SOLO cont.
eb-------------------------------------------------------------------------|
Bb------15-13--------------------------------------------------------------|
Gb--12b-------14-12br-10-12-12-7-10-10-------------------12-7--------------|
Db---------------------------------------5b-7-7-7-7-7-7-------7-10/12-12-7-|
Ab-------------------------------------------------------------------------|
Db-------------------------------------------------------------------------|

eb-------------------------------------------------------------------------|
Bb-------------------------------------------------------------------------|
Gb--------------------10p7-12p7-10-12-7-10----14-12----12-10---------------|
Db--10/12-12--7-10-12-------------------------------15-------12---19~--14~-|
Ab-------------------------------------------------------------------------|
Db-------------------------------------------------------------------------|

eb-----------------|
Bb-----------------|
Gb--12~---12-10-7--|
Db-----------------|
Ab-----------------|
Db-----------------|

GUITAR 2 PLAYS @ 2.22 DURING THE SOLO
eb-------------------------------------------------|
Bb-------------------------------------------------|
Gb--7-7-7-7---5-5-5-5------------------------------|
Db--7-7-7-7---5-5-5-5---7-7-7-7---5-5-5-5---5-3-0--|
Ab--5-5-5-5---3-3-3-3---7-7-7-7---5-5-5-5---5-3-0--|
Db----------------------7-7-7-7---5-5-5-5---5-3-0--|

2.36                          x4
eb-----------------------------|
Bb-----------------------------|
Gb-----------------------------|
Db--5-3-0-0--5-3-0-0--x-x-x-x--|
Ab--5-3-0-0--5-3-0-0--x-x-x-x--|
Db--5-3-0-0--5-3-0-0--x-x-x-x--|

2.47                                            x3
eb-----------------------------------------------|
Bb-----------------------------------------------|
Gb-----------------------------------------------|
Db--3-3-3-3-3--5-5-5-5-5-------------------------|
Ab--3-3-3-3-3--5-5-5-5-5--0-2h3-3--0h2-2--0h2-1--|
Db--3-3-3-3-3--5-5-5-5-5--0-2h3----0h2----0h2----|

eb------------------------|
Bb------------------------|
Gb------------------------|
Db--3-3-3-3-3--5-5-5-5-5--|
Ab--3-3-3-3-3--5-5-5-5-5--|
Db--3-3-3-3-3--5-5-5-5-5--|

3.09 OUTRO
eb-------------------------------------------------------------------------|
Bb-------------------------------------------------------------------------|
Gb-------------------------------------------------------------------------|
Db-------------------------------------------------------------------------|
Ab--0--0--0--0--0-0-0--0--0--0--0--5~--0--0--0--0--0-0-0---0h2-3--0h2-2-2-0|
Db--0--0--0--0--0-0-0--0--0--0--0------0--0--0--0--0-0-0---0h2----0h2-----0|

Any corrections please comment
Thanks
Добавлено: 21.07.2012
Другие материалы по этой песне:
  • Аккорды и текст

Страница создана 07.03.2012
http://primanota.ru/black-stone-cherry/violator-girl-chords.htm
Привет, Гость.
Предлагаем пройти революционный курс по гитаре.
Подарок от PrimaNota.Ru, забирай!