PrimaNota.ru - самый крупный в мире бесплатный архив песенных текстов, аккордов, табулатур и нот


Black Stone Cherry - Killing Floor - таба, видео

Регистрация Запомнить меня
Войти через:  Facebook Google Twitter Vk Yandex Mail.ru

Black Stone Cherry - Killing Floor - таба, видео

Печатать
Просмотров: 232
-------------------------------------------------------------------------------
                          Killing Floor- Blacks Stone Cherry
-------------------------------------------------------------------------------

From The Album "Between The Devil And The Deep Blue Sea"
Tabbed by CollinN
Email. Collinjohnnyb@gmail.com
email me request or contact me on Ultimate-guitar.com
I FIGURED BY SEEING NO BARELY ANY TABS FOR BCS'S NEW ALBUM I THOUGHT I WOULD TRY TO
LEARN IT BY EAR SO I THINK I GOT MOST OF THE BITS AND PIECES SO HERE THEY ARE.

GUITAR 1
  3RD TIME
C#|----------------------------------------------------|--|
G#|---------7---------------------7--------------------|--|
E |---7h8---8--7-7---7-7-7--7h8---8--7-7-7/5-5--5------|x2|
B |----0---------0-----0---0--0--------0---0----0------|--|
F#|----------------------------------------------------|--|
B |----------------------------------------------------|--|

-|------------------------------------------------|
-|-------7---------------------7-----------9-8-7--|
-|----7h8--8--7-7---7-7-7--7h8---8--7-7-7---------|
-|----0--------0-----0---0-----------0------------|
-|------------------------------------------------|
-|------------------------------------------------|

GUITAR 2
|--------------------------------------------------------|
|--------------------------------------------------------|
|--------------------------------------------------------|
|--------------------------------------------------------|
|--------------------------------------------------------|
|--------------------------------------------------------|

|-------------------------------------------------------|
|-------------------------------------------------------|
|-------------------------------------------------------|
|-------------------------------------------------------|
|------------------------------------------4-3-2--------|
|------------------------------------------4-3-2--------|


GUITAR 1                                                                           PLAY
3RD TIME THROUGH
|--------------------------------------------------------|
|--------------------------------------------------------|
|--------------------------------------------------------|
|--------------------------------------------------------|
|--------------------------------------------------------|
|--------------------------------------------------------|
|

|------------------------------------------------|
|-------7---------------------7-----------9-8-7--|
|----7h8--8--7-7---7-7-7--7h8---8--7-7-7---------|
|----0--------0-----0---0-----------0------------|
|------------------------------------------------|
|------------------------------------------------|

GUITAR 2
|--------------------------------------------------------|
|--------------------------------------------------------|
|--------------------------------------------------------|
|--------------------------------------------------------| x4
|--0h1--4-1--0--#-#--4--3--2--0h1--4-1--0--0h-3p-0h-4-3-2|
|--0h1--4-1--0--#-#--4--3--2--0h1--4-1--0--0h-3p-0h-4p-0-|

----------------------------------------------------------------------------------------------
MORE ON THE WAY DONT WORRY. ITS MY FIRST TIME SO I TAKES ME A WHILE I SHOULD HAVE MORE
WITHIN A FEW DAYS.
REQUEST SONGS FOR ME TO DO THANKS. - CollinN
----------------------------------------------------------------------------------------------
Добавлено: 13.03.2012
Другие материалы по этой песне:
  • Аккорды и текст

Страница создана 13.03.2012
http://primanota.ru/black-stone-cherry/killing-floor-chords.htm
Привет, Гость.
Предлагаем пройти революционный курс по гитаре.
Подарок от PrimaNota.Ru, забирай!