PrimaNota.ru - самый крупный в мире бесплатный архив песенных текстов, аккордов, табулатур и нот


Black Stone Cherry - Rollin On - текст песни, таба, видео

Регистрация Запомнить меня
Войти через:  Facebook Google Twitter Vk Yandex Mail.ru

Black Stone Cherry - Rollin On - текст песни, таба, видео

Печатать
Просмотров: 211
-------------------------------------------------------------------------------
                             Rollin On - Black Stone Cherry
-------------------------------------------------------------------------------
Tabbed by:backwoodsgold

Tuning: half step down drop d
Intro
e|---------------------------------------------------------------------------|
B|---------------------------------------------------------------------------|
G|2h4--2------------------------2h4--2---------------------------------------|
D|----------2h4--2--0h2--00---------------2h4--2--0h2--0---------------------|
A|---------------------------------------------------------------------------|
E|---------------------------------------------------------------------------|
Verse
e|---------------------------------------------------------------------------|
B|---------------------------------------------------------------------------|
G|--2---------7---------------------2----------7-----------------------------|
D|--2---------5----------7----------2----------5----------7----------7/6/4/2-|
A|--0---------5----------5----------0----------5----------5----------5/4/2/0-|
E|------------5----------0---------------------5----------0------------------|
Chorus
e|---------------------------------------------------------------------------|
B|---------------------------------------------------------------------------|
G|--2-------4-------6--------------------------------------------------------|
D|--2-------2-------4--------7----7/6/4/2------------------------------------|
A|--0-------2-------4--------5----5/4/2/0------------------------------------|
E|----------2-------4--------------------------------------------------------|

e|---------------------------------------------------------------------------|
B|---------------------------------------------------------------------------|
G|--2-------4----------------------------------------------------------------|
D|--2-------2-------7-------7/9/11/14----------------------------------------|
A|--0-------2-------5-------5/7/9/12-----------------------------------------|
E|----------2----------------------------------------------------------------|


Enjoy!!!

| /  slide up
| \  slide down
| h  hammer-on
| p  pull-off
| ~  vibrato
| +  harmonic
| x  Mute note
Добавлено: 05.03.2012
Другие материалы по этой песне:

Страница создана 05.03.2012
http://primanota.ru/black-stone-cherry/rollin-on-chords.htm
Привет, Гость.
Предлагаем пройти революционный курс по гитаре.
Подарок от PrimaNota.Ru, забирай!